Guitar Tabs, Chords and Lyrics
Update 25:10. 13:00. Site is back up running again. Songbooks are recovered. Woring on getting search back up..


Po' Boy  Bob Dylan

Chords:
The E7-5 is the combined result of guitar and bass. A plain E7 is just
as good.
The G at the end of the bridge is, just like in Mississippi, more of a
G7sus4 (3x301x) or G11 (3x3211).
 
 : . . . : . . . : . . . : . . .
 |-12----10--------|-----------------|--------/3-1---0-|-----------------
 |-10----10--------|-1-----1---------|/5-5-5-5/5-3---1-|-----------------
 |-10----10--------|-0-----2---------|--------(0-0---0)|-----------------
 |-10----10--------|-2-----2---------|/5-5-5-5---------|-----------------
 |-----------------|-3-----0---------|-----------------|-----------------
 |-----------------|-------2---------|-----------------|-----------------

[C]Man came to the door, I say, "[Bm7-5];For whom are[E7(-5)] you lookin' "
He says, "[Am]Your wife." I sa[D9]y, "She's busy in the kitchen cookin' "
[Fmaj7]Po' [F6]boy, [C]where you [Am/F#]been?
[F(maj7)]I already told you,[G6] won't tell [G]you a[C]gain.
I say, "How much you want for that?" I go into the store,
Man says, "Three dollars." "All right," I say, "Will you take four?"
Po' boy, never say die,
Things will be all right by and by.
Workin' like on the main line, working like a devil,
The game is the same, it's just up on another level.
Po' boy, dressed in black,
Police at your back. B(5)
[Em]Po' [B7]boy in a [Em]red hot [B7]town,
[Em] out be[B7]yond the twinklin'[Em] stars,
[E7]Ridin' first [Am]class trains, [E7]makin' the [Am]rounds,
[E7]Tryin' to keep from [Am]fallin' be[D9]tween the [G]cars
[G] . : . . . : . .
 
 ---------|------------------- ----------|-------------------
 -5-6---5-|-8---8-----6------- --1-3---1-|-5---5-----3-------
 -5-7---5-|-9---9-----7------- or ----------|-------------------
 ---------|------------------- --2-3---2-|-5---5-----3-------
 ---------|------------------- ----------|-------------------
 ---------|------------------- ----------|-------------------

Othello told Desdemona, "I'm cold, cover me with a blanket,
By the way, what happened to that poisoned wine?"
She said, "I gave it to you, you drank it."
Po' boy, layin' him straight,
Pickin' up the cherries fallin' off the plate.
Time and love has branded me with its claws
Had to go to Florida dodgin' them Georgia laws.
Po' boy, in the hotel called The Palace of Gloom,
Call down to room service, says "Send up a room."
My mother was a daughter of a wealthy farmer,
My father was a travelin' salesman, I never met him.
When my mother died, my uncle took me and he ran a funeral parlor.
He did a lot of nice things for me and I won't forget him.
. : . .
 
 ----------|-------------------
 --1-3---1-|-5---------3-3-----
 ----------|-------------------
 --2-3---2-|-5---------3-3-----
 ----------|-------------------
 ----------|-------------------

All I know is that I'm thrilled by your kiss,
I don't know any more than this.
Po' boy, pickin' up sticks,
Build you a house out of mortar and bricks.
Knockin' on the door, I said, "Who's it, where you from?"
Man said, "Freddie." I said, "Freddie who?"
He said, "Freddie or not, here I come!"
Po' boy, 'neath the stars that shine,
Washin' them dishes, feedin' them swine.
(Intro (slowly))
An alternate way of playing the end of the intro:
 
 : . . . :
 |-0--------0---------0-|-------
 |-1--------0---3-1---1-|-------
 |-2--------0---------0-|-------
 |-3--------0---------2-|-------
 |-3--------2---------3-|-------
 |-1--------3-----------|-------

Tabbed by Eyolf √?strem - dylanchords.info

Important: The song above is NOT stored on the Chordie server. The original song is hosted at dylanchords.info. Chordie works as a search engine and provides on-the-fly formatting. Chordie does not index songs against artists'/composers' will. To remove this song please click here.

Text color:
Chord color:
Chord grids: 
Font size:    
Page size: 

Am Am/F# B7 Bm7-5 C D9 E7 Em F(maj7) F6 Fmaj7 G G6
Rate #1 of 2 versions

Jango Player

Login - add to songbook

SHARE PAGE  




You need to log in to post comments