Guitar Tabs, Chords and Lyrics
Server problems seems to be fixed. Chordie has been experiencing problems with songs disappearing. These issues now seems to be fixed, but still verifying the fix. If you find anything strange, please email admin@chordie.com.


Alt kan repeteres  Jokke & Valentinerne

vanlig tilstemming
Intro:
 
 e|----------------5---4---5--------------------------------------------------|
 B|----------------5---4---5---8-8-8-7-5--------------------------------------|
 G|----------------6---5---6---8-8-8-7-5--------------------------------------|
 D|----------------7---6---7---8-8-8-7-5--------------------------------------|
 A|--6-6-6-6-5-3----7---6---7---6-6-6-5-3--------------------------------------|
 E|--------------5-5-4-4-5-5--------------------------------------------------|

Vers1:
 
 e|----------5---4---5--------------------------------------------------------|
 B|----------5---4---5--8-8-8-8-7-5--------------------------------------------|
 G|----------6---5---6--8-8-8-8-7-5--------------------------------------------|
 D|----------7---6---7--8-8-8-8-7-5--------------------------------------------|
 A|----------7---6---7--6-6-6-6-5-3--------------------------------------------|
 E|--------5-5-4-4-5-5--------------------------------------------------------|

refreng:
 
 e|------------------------------5--------------------------------------------|
 B|---8-8-8-7-5-7-----8-8-8-8-7-5-5--------------------------------------------|
 G|---8-8-8-7-5-7-----8-8-8-8-7-5-6--------------------------------------------|
 D|---8-8-8-7-5-7-----8-8-8-8-7-5-7--------------------------------------------|
 A|---6-6-6-5-3-5-----6-6-6-6-5-3-7--------------------------------------------|
 E|------------------------------5--------------------------------------------|

x2
spill dette før andre vers
 
 e|---------------------------------------------------------------------------|
 B|---------------------------------------------------------------------------|
 G|------2-4^5-2--------------------------------------------------------------|
 D|--2h4---------4------------------------------------------------------------|
 A|---------------------------------------------------------------------------|
 E|---------------------------------------------------------------------------|

hvis du spiller alene, bytt den siste nota med F#
Vers2 er bare akkordene F# G og E... hør på sangen for og få det riktig .
[F#] [G] [E]  
 
 e|--2---3--------------------------------------------------------------------|
 B|--2---3--------------------------------------------------------------------|
 G|--3---4----1---------------------------------------------------------------|
 D|--4---5----2---------------------------------------------------------------|
 A|--4---5----2---------------------------------------------------------------|
 E|--2---3--------------------------------------------------------------------|

fjerde vers er spilt av bass og trommer
du kan spille det slik :
 
 e|---------------------------------------------------------------------------|
 B|---------------------------------------------------------------------------|
 G|---------------------------------------------------------------------------|
 D|---------------------------------------------------------------------------|
 A|-----------6-6-6-5-3-------------------------------------------------------|
 E|---5-5-4-4-----------------------------------------------------------------|

[A]Ta en titt ut av[G#] vinduet ditt æ[A]9;kke himmelen[D#] blå[D] [C]
[A]Det var mye vær[G#]re her om da'n [A]da var himmele[D#]n grå[D] [C]
[A]Skulle vært her[G#] i forrige uke da ha[A]dde vi snø[D#] [D] [C]
[A]Alt jeg tenker p[G#]å er vær og vind o[A]g mat hver bidige dag
[D#]Alt kan repe[D]te[C]res,[A] [AG#G#A] [D#]alle kan be[D]lede[C]s[AG#G#A]
D# D c D# D C E
Alt kan repeteres, og ingen ting blir bedre
[F#]Jeg våkner i den samme gamle senga og[G] håper på [E]det beste
[F#]Tomme lommer og tommere glass, her er [G]gutten som kan [E]fes[G]te
[F#]Alle folka som var her i går har fors[G]vinni til no�[E]39; bedre
[F#]Hver dag den samme som den neste, [G]ut og repa[E]re[G]re
Alt kan repeteres, ingen ting kan heles
Alt kan repeteres, og ingen ting blir bedre
Jeg sitter her og drekker igjen, min oppfinnsomhet har grenser
Skulle hatt no' piller eller no' spenn, eller begge deler
Alle folka går å prater om meg her skal det kommerseres
Dem begynner å bli skikkelig lei, her må det kritiseres
Ta en titt ut av vinduet ditt æ'kke himmelen blå (ikke vær så kjedelig)
Det var mye værre her om da'n da var himmelen grå (uhelbredelig)
Skulle vært her i forrige uke da hadde vi snø (kan det være mulig)
Alt jeg tenker på er vær og vind og mat hver bidige dag
Alt kan repeteres,alle kan beledes
Alt kan repeteres, og ingen ting blir bedre
Jeg våkner i den samme gamle senga og håper på det beste
Tomme lommer og tommere glass, her er gutten som kan feste
Alle folka som var her i går har forsvinni til no' bedre
Hver dag den samme som den neste, ut og reparere
Alt kan repeteres
Alle kan beledes
Alt kan repeteres
Og ingen ting blir bedre
Alt kan repeteres
Alle kan beledes
Alt kan repeteres
Og ingen ting blir bedre
Alt kan repeteres
Alt kan repeteres
Alt kan repeteres
Alt kan repeteres

Important: The song above is NOT stored on the Chordie server. The original song is hosted at nortabs.net. Chordie works as a search engine and provides on-the-fly formatting. Chordie does not index songs against artists'/composers' will. To remove this song please click here.

Text color:
Chord color:
Chord grids: 
Font size:    
Page size: 

A C D D# E F# G G#
Rate #1 of 1 versions

Login - add to songbook

SHARE PAGE  



You need to log in to post comments