Guitar Tabs, Chords and Lyrics
Update 25:10. 13:00. Site is back up running again. Songbooks are recovered. Woring on getting search back up..


Det fine vi hadd' sammen  D.D.E.

Tekst: Terje Olsen/ Frode Viken.
Melodi: Frode Viken
Intro: G D C D
Det kan itj [G]værra sant[D]
Den beste tida skull‚?? j[Em]o komma n[D]o[C]
Vi hadd fortsatt mytji [G]mer te go‚??
√?[Am] va itj[C] forberedt p√• de[D]t herre
√? kan itj[G] n√• d√¶ no[D]
Det e live sj√łl som gir oss[Em] s√•nne sla[D]g[C]
Men æ ska lell få sagt de[G]t no i dag
[Am]Du vil [C]bli her for [D]bestandig
√?[Am] savne d√¶ no og det v[D]i itj skull‚?? f√•
Men [C]minnan du har [Am]gitt mæ
ska æ[D] ta godt vare på
[G]√? vil tenk p√• alt de[Em]t fine vi hadd[D]‚?? sammen
[Am]Den gang vi [C]trudd‚?? vi kunn‚?? k[D]lar alt
[G]√? vil tenk p√• alt de[Em]t fine vi hadd[D]‚?? sammen
[C]‚??No sjer [D]√¶ d√¶ i ett[G] og alt
Vi hadd‚?? e[G]i herlig tid[D]
Skull‚?? s√• gjern‚?? ha gjort[Em] alt om i[D]gjen[C]
Glad for at æ fikk ha[G] dæ som venn
[Am]Vi levd [C]livet mens vi [D]gjor det
Solo:
[G] [D] [Em] [D] [C] [G]  
 
 E|----------7----------7-8-10-12-15-12---------7-8-7-----------7-10---|
 H|------10----8-----10-------------------------------10-8-10----------|
 G|-7-7------------7---------------------------------------------------|
 D|--------------------------------------------------------------------|
 A|--------------------------------------------------------------------|
 E|--------------------------------------------------------------------|

[Am] [C] [D]  
 
 E|------7-8-10-12-14-15-17-----15p14h15-------------------------------|
 H|-8-10---------------------------------------------------------------|
 G|--------------------------------------------------------------------|
 D|--------------------------------------------------------------------|
 A|--------------------------------------------------------------------|
 E|--------------------------------------------------------------------|

Copyright © Terje Olsen / Frode Viken. Kopiering i trykt form er lov
kun etter avtale med forfatterene. Offentlig framf√łring er lov under
forutsetning av at vederlag blir betalt til TONO/n©b. Elektronisk
kopiering er lov så lenge denne anmerkningen om copyright ikke
blir fjernet.

Important: The song above is NOT stored on the Chordie server. The original song is hosted at nortabs.net. Chordie works as a search engine and provides on-the-fly formatting. Chordie does not index songs against artists'/composers' will. To remove this song please click here.

Text color:
Chord color:
Chord grids: 
Font size:    
Page size: 

Am C D Em G
Rate #1 of 1 versions

Login - add to songbook

SHARE PAGE  



You need to log in to post comments