Guitar Tabs, Chords and Lyrics
Update 25:10. 13:00. Site is back up running again. Songbooks are recovered. Woring on getting search back up..


Du e nydelig  D.D.E.

Du e nyd'lig
Men det e itj en[G]kelt å få sagt[D] det
Når vi akkurat har kran[A]gla
"Un[G]nskyld" va det som mangla
og du ø[D]nska mæ te et m[A]ytji var[G]mar sted
Du e nyd[D]'lig[Bm]
? e gla[A]d for at æ fann[G]
og kan d[D]et henn at det v[G]a mæ du leita ætt[A]
du e nyd[D]elig[Bm]
Om vi be[A]gge e li[G]tt rar
æ syns [D]vi kler kvaranne[G]r re[A]tt og slett[D]
 
 E |--------10----------7---------------------2h3p2p0p2---|
 H |--10-10----8----7-7---5-----3----3-2-3----------------|
 G |------------------------------------------------------|
 D |------------------------------------------------------|
 A |------------------------------------------------------|
 E |------------------------------------------------------|

Du er nydlig,
du sa æ mått å tull, æ kjetta dæ forsiktig
for å bli venna helt oppriktig
men æ mått tru det va itj så enkelt å få dæ blid
Ref:
 
 E |--------10----------7---------------------2h3p2p0p2---|
 H |--10-10----8----7-7---5-----3----3-2-3----------------|
 G |------------------------------------------------------|
 D |------------------------------------------------------|
 A |------------------------------------------------------|
 E |------------------------------------------------------|


Important: The song above is NOT stored on the Chordie server. The original song is hosted at nortabs.net. Chordie works as a search engine and provides on-the-fly formatting. Chordie does not index songs against artists'/composers' will. To remove this song please click here.

Text color:
Chord color:
Chord grids: 
Font size:    
Page size: 

A Bm D G
Rate #1 of 1 versions

Jango Player

Login - add to songbook

SHARE PAGE  



You need to log in to post comments