Guitar Tabs, Chords and Lyrics
Update 25:10. 13:00. Site is back up running again. Songbooks are recovered. Woring on getting search back up..


Den redde  Hellbillies

Hellbillies - Den Redde
D/f# - vanelig D med f# i bass
 
 Intro: (nedgang) <-------

Em H D A | C Em 0 G |<-----nedgang her!
 
 |-----0-------------------2--------------------------|
 |-5-5-0----5--5----4-------3-------------------------|
 |-4-4-0----4--4----4-----2--2-------2----------------|
 |-5-4-2----5--4----4----0----0-----2-2----2--2--0--0-|
 |-----2------------2--------------0-------3--2--0--2-|
 |-----0--------------------------------------------3-|

No e timen blå, sjå bære sjå, Når dagen blør i havet, Så kjem natta på tå
 
 (nedgang) <-------

Em H D A | C Em 0 G | D/f#
 
 |-----0--------------------2----------------------------2---|
 |-5-5-0----5--5-----4-------3---------------------------3---|
 |-4-4-0----4--4-----4-----2--2------2-------------------2---|
 |-5-4-2----5--4-----4----0----0----2-2-----2--2--0-0----0---|
 |-----2-------------2-------------0--------3--2--0-2----0---|
 |-----0--------------------------------------------3----2---| 

No vakne nattedyr, skrumt og vampyr, Vente på et offerlam, Som i vanvare stikk seg fram.
Em D/f# Em D/f#
Vers:
[Em]Der mørket tetna som en[G] mur
[Em]Der ligge rovdyre på[G] lur
Am Em G D/f#
Dei merke seg den minste lyd
[Em]Den redde sine hjerte[G]slag
[Em]Et pensum for et rovdyr [G]fag
Am Em G D/f#
Ta motet fram og gjøym det ned
Ref:
Em D#f Em Em D#f G
Ja for nå er timen blå, Sjå bere Sjå
D#f A (Nedgang C Em 0 G) D#f
Når dagen Blør i havet, så kjem natta på tå
Em D#f Em Em D#f G
då våkne nattedyr, Skrømt og vampyr
D#f A (Nedgang C Em 0 G) D#f (nedgangen = )
Vente på et offerlam som i vanvare stikk seg fram (samme som intro)
Em D/f# Em D/f#
Vers:
[Em]No tute ulvane i[G]lag
[Em]Når natta tigga imot[G] dag
Am Em G D/f#
Dei leite den veike fram
[Em]No blinka lampa kald og [G]blå
[Em]? fare Laus veg kan ingen[G]
Am Em G D/f# D/f#
Den redde set så sterke Svår
Am Em G D/f#
Han stikker ut av der han går
Ref:
Em D#f Em Em D#f G
Ja for nå er timen blå, Sjå bere Sjå
D#f A (Nedgang C Em 0 G) D#f
Når dagen Blør i havet, så kjem natta på tå
Em D#f Em Em D#f G
då våkne nattedyr, Skrømt og vampyr
D#f A (Nedgang C Em 0 G) D#f (nedgangen = )
Vente på et offerlam som i vanvare stikk seg fram (samme som intro
Bridge:
[Em]Am Em [G]G D/f[Em]#[G]
Am Em G D/f#
Ref:
Em D#f Em Em D#f G
Ja for nå er timen blå, Sjå bere Sjå
D#f A (Nedgang C Em 0 G) D#f
Når dagen Blør i havet, så kjem natta på tå
Em D#f Em Em D#f G
då våkne nattedyr, Skrømt og vampyr
D#f A (Nedgang C Em 0 G) D#f (nedgangen = )
Vente på et offerlam som i vanvare stikk seg fram (samme som introm
Em D/f# G
D/f# A
Den redde sett så sterke spår
(Nedgang som i intro) D/f#
Langs ruta der han går
Outro:
Em D/f# G
D/f# A (Nedgang som i intro)
Em D/f# Em D/f# Em D/f# Em

Important: The song above is NOT stored on the Chordie server. The original song is hosted at nortabs.net. Chordie works as a search engine and provides on-the-fly formatting. Chordie does not index songs against artists'/composers' will. To remove this song please click here.

Text color:
Chord color:
Chord grids: 
Font size:    
Page size: 

Em G
Rate #1 of 3 versions

Jango Player

Login - add to songbook

SHARE PAGE  




You need to log in to post comments