Guitar Tabs, Chords and Lyrics
Update 25:10. 13:00. Site is back up running again. Songbooks are recovered. Woring on getting search back up..


Helt fram til nå  Oslo Ess

HELT FRAM TIL N? - OSLO ESS
Uleste bøker og utgåtte sko
Grepene spilles ved å slå ann først A strengen, så strengene under. Riff lengre ned(riffet varierer litt igjennom sangen, så utforsk andre måter og spillet det på. De forskelige lick'ene baserer seg i dette riffet.)
Intro: Am
Am,C x3
F,E,D,C,A
(hele x2)
[Am]Hvis tiden går for[C] sakte kan du[Am] bare stille[C] klokka vå[Am]r fram
(C-F,E,D,C,A)
[Am]her kan vi [C]kjøpe oss[Am] tid, skukke[C] tro det gik[Am]k ann
(C-F,E,D,C,A)
[Am]Hvis sola går ned, kan[C] jeg følge med, n[Am]r skyggen min og
[C]mørket blir[Am] en
(C-F,E,D,C,A)
[Am]og hvis jeg [C]venter en [Am]stund kan [C]sola slikke meg [Am]ren
(C-F,E,D,C,A)
Mellomspill:
Am,C x3
F,E,D,C,A
(hele x2)
Vandrer rundt uten noen annen grunn enn å gå
Jeg lar timene fly har ikke en dritt jeg må nå
jeg går og trekker tråder i fra hodet igjennom ryggen og ned
og hodet svever mellom meg og himmlen ett sted
(ikke sikker her:)
[Am]Jeg går fort igjennom byen men jeg hakke dårlig tid
[Am]jeg bare liker ikke tanken på at livet går forbi meg
[Am]og jeg ler til jeg griner og jeg griner til jeg ler når jeg
[E]hører det jeg hører og ser det jeg ser
(Enkelt slag på refrenget)
og jeg tar
[Am]Alt inn med [F]åpne[Am] øyne, Alt inn me[F]d åp[Am]ne øyne dø[E]ynet rundt
Tar alle [Am]inntrykk til meg fra det [F]aller [Am]første, det[F] aller[Am] første
det [F]aller [Am]første og[E] helt, fram til nå.
Riff:
 
 E|-------------------------------------------|
 B|--(5)--8--5--------------------------------|
 G|-----------7--5-------5--------------------|
 D|-----------------7^------------------------|
 A|-------------------------------------------|
 E|-------------------------------------------|

Outro:
 
 E|-------------------------------------------|
 B|---8--5------------------------------------|
 G|-----------7--5----------------------------|
 D|-----------------7-------------------------|
 A|-------------------------------------------|
 E|-------------------------------------------|

Er ikke 100% sikker. Er åpen for forslag til korrektur. Jeg måtte bare lage en tab av denne sangen etter en kickass konsert med dem på Trollrock juli 2011!

Important: The song above is NOT stored on the Chordie server. The original song is hosted at nortabs.net. Chordie works as a search engine and provides on-the-fly formatting. Chordie does not index songs against artists'/composers' will. To remove this song please click here.

Text color:
Chord color:
Chord grids: 
Font size:    
Page size: 

Am C E F
Rate #1 of 1 versions

Login - add to songbook

SHARE PAGE  



You need to log in to post comments