Guitar Tabs, Chords and Lyrics
Server problems seems to be fixed. Chordie has been experiencing problems with songs disappearing. These issues now seems to be fixed, but still verifying the fix. If you find anything strange, please email admin@chordie.com.


Humming One Of Your Songs  Ane Brun

Capo 6. bånd
Akkorder:
Em 022000
Emadd4 002000
Em7 055000
Em7add4 000000
G6 320000
G6add9 300000
Gm6 650000
Standard-figur:
[Em]> > [Emadd4] > > [Em] > > &[Em]gt; [Em7] [Em7add4] > >
: . . : . . : . . : . .
 
 ||--0-----0---0-0---0-|-0----0---0-0---0-|-0----0---0-0---0-|-0----0----0-----||
 ||*-0-----0---0-0---0-|-0----0---0-0---0-|-0----0---0-0---0-|-0----0----0----*||
 ||--0-----0---0-0---0-|-0----0---0-0---0-|-0----0---0-0---0-|-0----0----0-----||
 ||--2-----2---2-2---2-|-2----2---2-2---2-|-2----2---2-2---2-|-2---/5----0-----||
 ||*-2-----2---2-2---2-|-0----0---0-0---0-|-2----2---2-2---2-|-2---/5----0----*||
 ||--0-----0---0-0---0-|-0----0---0-0---0-|-0----0---0-0---0-|-0----0----0-----||

[G6]: . . [G6add9]: . . [G6]: . . [G6]: [Gm6]. [Em7add4].
 
 ||--0-----0---0-0---0-|-0----0---0-0---0-|-0----0---0-0---0-|-0----0----0-----||
 ||*-0-----0---0-0---0-|-0----0---0-0---0-|-0----0---0-0---0-|-0----0----0----*||
 ||--0-----0---0-0---0-|-0----0---0-0---0-|-0----0---0-0---0-|-0----0----0-----||
 ||--0-----0---0-0---0-|-0----0---0-0---0-|-0----0---0-0---0-|-0----0----0-----||
 ||*-2-----2---2-2---2-|-0----0---0-0---0-|-2----2---2-2---2-|-2---/5----0----*||
 ||--3-----3---3-3---3-|-3----3---3-3---3-|-3----3---3-3---3-|-3---/6----0-----||

Em . . | Emadd4 . . | Em . . | Em Em7 Em7add4 |
I??m walking
Em . . | Emadd4 . . | Em . . | Em Em7 Em7add4 |
I am walk - ing a -
|: G6 . . | G6add9 . . | G6 . . | G6 Gm6 Em7add4 :|
long
Em . . | Emadd4 . . | Em . . | Em Em7 Em7add4 |
And I am humming
Em . . | Emadd4 . . | Em . . | Em Em7 Em7add4 |
I am humming One of your
|: G6 . . | G6add9 . . | G6 . . | G6 Gm6 Em7add4 :|
songs
[Am7]I just know one small verse in the middle of it
[Am7]But it makes me wanna hear it
Em (figur)
On and on and on and on
[Am7]I just know one small verse in the middle of it
But it makes me wanna hear it
On and on and on and [Em]on
Em-figur x2
G-figur x2
Everyday I hear your song now
Everyday
It won´t go away.
So I am humming
I am humming
One of your songs
I just know one small verse in the middle of it
But it makes me wanna hear it
On and on and on and on
I just know one small verse in the middle of it
But it makes me wanna hear it
On and on and on and on
So I am humming
I am humming
One of your songs
Mellomstykket kan spilles:
[Am7]: . . [Am6]: . . [Am(7)]: . . : . .
 
 |-3--------|-2--------|-0--------|----------|
 |-1--------|-1--------|-1--------|----------|
 |-0--------|-0--------|-0--------|----------|
 |-2--------|-2--------|-2--------|----------|
 |-0--------|-0--------|-0--------|----------|
 |----------|----------|----------|----------|

[Am7]: . . [Am6]: . . [Am(7)]: . . [Am7sus4]: . .
 
 |-3--------|-2--------|-0--------|-0--------|
 |-1--------|-1--------|-1--------|-3--------|
 |-0--------|-0--------|-0--------|-0--------|
 |-2--------|-2--------|-2--------|-2--------|
 |-0--------|-0--------|-0--------|-0--------|
 |----------|----------|----------|----------|

[Em]: . . [Emsus4]: . . [Em]: . . : . .
 
 |-0--------|-0--------|-0--------|-0--------|
 |-0--------|-0--------|-0--------|-0--------|
 |-0--------|-2--------|-0--------|-0--------|
 |-2--------|-2--------|-2--------|-2--------|
 |-2--------|-2--------|-2--------|-2--------|
 |-0--------|-0--------|-0--------|-0--------|


Important: The song above is NOT stored on the Chordie server. The original song is hosted at nortabs.net. Chordie works as a search engine and provides on-the-fly formatting. Chordie does not index songs against artists'/composers' will. To remove this song please click here.

Text color:
Chord color:
Chord grids: 
Font size:    
Page size: 

Am6 Am7 Am7sus4 Em Em7 Em7add4 Emadd4 Emsus4 G6 G6add9 Gm6
Rate #1 of 5 versions

Login - add to songbook

SHARE PAGE  




You need to log in to post comments