Guitar Tabs, Chords and Lyrics
Server problems seems to be fixed. Chordie has been experiencing problems with songs disappearing. These issues now seems to be fixed, but still verifying the fix. If you find anything strange, please email admin@chordie.com.


Are They Saying Goodbye?  Ane Brun

Fra Spending Time With Morgan (2003)
 
 ├?pen Gm-stemning (D-G-d-g-bb-d')

Gm7 x00043
Gm/Bb x30040
G5 x00040
Gm x00005
A7 x2x03x
Gm/F 3x030x
C x5x065
Gm(type2) x00000
Em7-5 2x000x
Cadd9 x50065
Eb x8x098
Verset spilles en gang som intro
(Vers)
[Gm7]: . . [Gm]: . . [C]: . . [Cadd9]: . .
 
 |-3-----3-----|/5-----5-----|-------------|-0-----------|
 |-------------|-------------|-6-----------|-------6-----|
 |---------0---|---------0---|---------0---|---------0---|
 |-------------|-------------|-------------|-------------|
 |-0---------0-|-------------|-5-----------|-------------|
 |-------------|-------------|-------------|-------------|

Are they saying good-bye
Curse up-on my face?
Gm/Bb A7 Gm(type 2)
: . . : . . : . . : . .
 
 |-------------|-------------|-------------|-------------|
 |-4-----4-----|-3-----2-----|-2b3r2---0---|-------------|
 |---------0---|---------0---|-------------|-0-----------|
 |-------------|-------------|-------------|-0-----------|
 |-3-----------|-2-----------|-0-----------|-0-----------|
 |-------------|-------------|-------------|-------------|

or is it just like be - fore?
Do I sym - bo - lize dis - grace?
[Gm7]: . . [Gm]: . . [C]: . . [Cadd9]: . .
 
 |-3-----3-----|/5-----5-----|-------------|-0-----------|
 |-------------|-------------|-6-----------|-------6-----|
 |---------0---|---------0---|---------0---|---------0---|
 |-------------|-------------|-------------|-------------|
 |-0---------0-|-------------|-5-----------|-------------|
 |-------------|-------------|-------------|-------------|

Could it be that I
Could it be that I
Eb C Gm(type 2)
: . . : . . : . . : . .
 
 |-8-----8-----|-5-----5-----|-0-----------|-------------|
 |-9-----9-----|-6-----6-----|-4-----------|-4-----4-----|
 |-------------|-------------|---------0---|---------0---|
 |-------------|-------------|-------------|-------------|
 |-8-------8---|-5-------5---|-0-----------|-------------|
 |-------------|-------------|-------------|-------------|

Made him love her more?
Made him love her more?
: . . : . .
 
 --------------|-------------||
 --------4-----|-4-----------||
 --------------|-------------||
 --------------|-------------||
 -0------------|-------------||
 --------------|-------------||

Does he
Well -
(Refreng)
[Gm]: . . : . . : . . : . .
 
 |-----0-------|---------------|-----0-------|---------------|
 |-----------2-|-2b3r2p0-------|-----------2-|-2b3r2p0-------|
 |-------0-----|---------0-----|-------0-----|---------0-----|
 |---------0---|---0-------0---|---------0---|---0-------0---|
 |-0-----------|---------------|-0-----------|---------------|
 |-------------|---------------|-------------|---------------|

I re - fuse to go deeper, I choose to go
Bb/f Em7-5
: . . : . . : . . : . .
 
 |--------------|-------------|-------------|--------------|
 |------0-------|-------------|-------0-----|--------------|
 |----3----3----|-3p0---0-----|-----2---2---|-2p0---0------|
 |--------------|-------------|-------------|---------0----|
 |--------------|-------------|-------------|--------------|
 |-3----------3-|---------3---|-2---------2-|--------------|

blind, this trouble just shouldn't be mine,
[Gm]: . . : . . : . . : . .
 
 |-----0-------|---------------|-----0-------|---------------|
 |-----------2-|-2b3r2p0-------|-----------2-|-2b3r2p0-------|
 |-------0-----|---------0-----|-------0-----|---------0-----|
 |---------0---|---0-------0---|---------0---|---0-------0---|
 |-0-----------|---------------|-0-----------|---------------|
 |-------------|---------------|-------------|---------------|

but it's confusing my ex-istence it's intruding my
Bb/f Em7-5
: . . : . . : . . : . .
 
 |--------------|-------------|-------------|--------------|
 |------0-------|-------------|-------0-----|--------------|
 |----3----3----|-3p0---0-----|-----2---2---|-2p0---0------|
 |--------------|-------------|-------------|---------0----|
 |--------------|-------------|-------------|--------------|
 |-3----------3-|---------3---|-2---------2-|--------------|

mind I guess this trouble is
: . . : . . [Gm7]: . .
 
 |-------------|--------------||-3-----3-----
 |-------------|--------------||-------------
 |-------0---0-|-----0--------||---------0--- osv. som
 |-------------|-0-------0----||------------- intro
 |-------------|--------------||-0---------0-
 |-2-----------|--------------||-------------

al - so mine
Are they saying goodbye?
Or is it just like before
Could it be that I
Made him love her more
Does he curse upon my face
Do I symbolize disgrace?
Could it be that I made him love her more
Well,
I refuse to go deeper
I choose to go blind
This trouble just should┬┤nt be mine
But it┬┤s confusing my excistence
It is intruding my mind
I guess this trouble
Is also mine
So I curse upon his face
He┬┤s a symbol of my own mistakes
Could it be that she
Makes me love him more?
Well,
I refuse to go deeper
I choose to go blind
This trouble just should┬┤nt be mine
But it┬┤s confusing my excistence
It is intruding my mind
I guess this trouble
this trouble
this trouble
Is also mine

Important: The song above is NOT stored on the Chordie server. The original song is hosted at nortabs.net. Chordie works as a search engine and provides on-the-fly formatting. Chordie does not index songs against artists'/composers' will. To remove this song please click here.

Text color:
Chord color:
Chord grids: 
Font size:    
Page size: 

C Cadd9 Gm Gm7
Rate #1 of 1 versions

Login - add to songbook

SHARE PAGE  



You need to log in to post comments