Guitar Tabs, Chords and Lyrics
Server problems seems to be fixed. Chordie has been experiencing problems with songs disappearing. These issues now seems to be fixed, but still verifying the fix. If you find anything strange, please email admin@chordie.com.


Action  Jokke & Valentinerne

Jokke & Valentinerne - Action
Tekst & Melodi: Joachim nielsen
Grep:
Em: 022000
C: x32000
F: 133211
D: xx0232
G: 320003
G/F#: 2x000x
G5: 355xxx
A5: x022xx
C5: x355xx
D5: x577xx
E5: 022xxx
|--7^9---| : spill og bend opp til tonen som tilhører anvist bånd
|---9r7--| : spill og bend ned igjen en allerede bendet tone (release)
 
 |--^9----| : spill en allerede bendet tone

|--7h9---| : hammer on
 
 |--7~----| : vibrato

introriff:
 
 1 |--------------------------------------------------------------------------|
 2 |--------------------------------------------------------------------------|
 3 |--------------------------------------------------------------------------|
 4 |7^9---9r7-5------------------------------5^6------------------------------|
 5 |-------------7~-7---5h7--7~------10-9-7-------7~-7---5h7--7~-------10-9-7-|
 6 |-------------0----0---------0--8~-------------0----0--------0--8~---------|

vers:
[Em] [C] [Em]  
 
 1 |-------------------------------------------|
 2 |-------------------------------------------|
 3 |-----------------------0-------------------|
 4 |-----2-------2-------2----------2----------|
 5 |---2---2---2---2---3----------2---2--------| X2
 6 |-0-------0------------------0--------------| 

[Em] [F] [Em]  
 
 1 |--------------------------------------|
 2 |--------------------------------------|
 3 |--------------------------------------|
 4 |-----2-------2---------3--------2-----|
 5 |---2---2---2---2-----3--------2---2---|
 6 |-0-------0---------1------- 0---------| 

noen ganger "slår" jokke F`en istedenfor å "plukke" den
 
 <----spill dette 2 ganger før refrenget---->
 1|------------------2--2--|-3---------------------|--------------2-----|
 2|------------------3--3--|-0----0-------0--------|--------------3-----|
 3|------------------2--2--|-0----0-------0--------|--------------2-----|
 4|-----2-------2----0--0--|-0----0-------0--------|-------2------0-----|
 5|---2---2---2---2--------|-2---------------------|-------2------------|
 6|-0-------0--------------|-3-------3-2~------2---|----0-----0---------| 

^ gjenta fra starten av vers her.
Før refrenget kommer det en gitar til, som spiller dette 2 ganger:
 
 1 |--------------------------------|
 2 |--------------------------------|
 3 |--------------------------------|
 4 |--------5---4---2---0-----------|
 5 |--------------------------------|
 6 |--------------------------------|

Gitarsolo:
 
 1 |---------------------------------------------------------------12-15-12-|
 2 |--------------------14^15~-^15~--------------------------12h15----------|
 3 |-14^16~--^16~--^16~---------14^16~---16r14-12-14^16~--------------------|
 4 |------------------------------------------------------------------------|
 5 |------------------------------------------------------------------------|
 6 |------------------------------------------------------------------------|
 1 |-------12---------------------------------------------------------------|
 2 |-12h15-----------------12----------------------12-12~----12^13----12----|
 3 |------------16r14-12---14^16---16r14-12--------12-12~----12^13----12----|
 4 |----------------------------------------14~-----------14-------14----14-|
 5 |------------------------------------------------------------------------|
 6 |------------------------------------------------------------------------|
 1 |------------------------------------------------------------------------|
 2 |-12-12--12---------12------12------12-----12---------12-12^13-----------|
 3 |-12-12--14^16~-----14^16---16r14---12h14--12---------12-12^13-----------|
 4 |----------------------------------------------14----------------14~-----|
 5 |------------------------------------------------------------------------|
 6 |------------------------------------------------------------------------|

avslutning: G G/F# Em D spilles 4 ganger og de to første gangene spilles dette over:
 
 1 |------------------------------------------------------------------------|
 2 |-10^12~----10~--8-7-8~--------------------------------------------------|
 3 |-----------------------------9--7~-----5^7----4-----2--0----2-4-2-------|
 4 |------------------------------------------------------------------------|
 5 |------------------------------------------------------------------------|
 6 |------------------------------------------------------------------------|

sangen slutter på G.
______________________________________________________________________________
Intro
Vers:
[Em]Det er midt på natta, men det.. [C] æ?kke no[Em]? mørkt
Midt på natta, men jeg[C] æ?kke[Em] no? trøtt
Byen er stille.. [F] og rusten og sl[Em]utt
Alt jeg kan høre..[D] er mine[G] skritt[G/F#]
[Em]Det er midt på natta, i en b[C]y som er s[Em]tengt
Spiller ingen rolle, mine [C]lommer er [Em]vrengt
Jeg kan høre sirener..[F] ikke langt[Em] borte
Jeg hører sirener, men jeg..[D] se`?kke [G]no? ac[G/F#]tion[Em] [D]
Jeg se?`kke n[G]o? act[G/F#]ion[Em] [D]
Refreng:
Jeg ser etter [G5]action, action
Jeg [A5]ser etter action,
men [C5]alt jeg finner er.. gla[G5]sskår og spy[D5]
[G5]Action, action
Jeg [C5]ser etter action[G5]
[G5]Gi meg ett eller an[F5]net før dage[C5]n deres gryr[G5]
Gi meg ett eller annet før dagen deres gryr
[G5]Gi meg ett eller an[F5]net før d[C5]agen deres ...[E5]....gryr
Intro
Vers2:
I de tusen hjem er kveldstrimmen over
kona er våken, og gubben sover
Hun tenner røyk og lytter til regnet
Lytter til regnet mens hun venter på action
Snart skal hele denne byen gå på jobben,
Hele byen unntatt jeg skal gå på jobben
Jeg tenner en røyk og lytter til regnet
Lytter til regnet mens jeg
venter på action
Jeg venter på action
Jeg venter på action, action
Refreng2:
Jeg ser etter action,
men alt jeg finner er glasskår og spy
Action, action
Jeg ser etter action
Gi meg ett eller annet før dagen deres gryr
Gi meg ett eller annet før dagen deres gryr
Gi meg ett eller annet før dagen deres...
Gitarsolo
Vers3:
Her kommer den første trikken, snart er det dag
Snart åpner dem butikken, og da er det dag
Halve byens alkoholiker stam
Står og skjelver nå, dem venter på action
Jeg sitter på en benk og ser på folket går forbi
Dem myldrer fram som maur, med blodskutte auver
Jeg tenner en røyk og lytter til regnet
Lytter til regnet mens jeg
venter på action
Avslutning: G F# E5 D X4 G

Important: The song above is NOT stored on the Chordie server. The original song is hosted at nortabs.net. Chordie works as a search engine and provides on-the-fly formatting. Chordie does not index songs against artists'/composers' will. To remove this song please click here.

Text color:
Chord color:
Chord grids: 
Font size:    
Page size: 

A5 C C5 D D5 E5 Em F F5 G G/F# G5
Rate #1 of 1 versions

Jango Player

Login - add to songbook

SHARE PAGE  




You need to log in to post comments