Guitar Tabs, Chords and Lyrics
Server problems seems to be fixed. Chordie has been experiencing problems with songs disappearing. These issues now seems to be fixed, but still verifying the fix. If you find anything strange, please email admin@chordie.com.


Telttur te Gyland  Luxus Leverpostei

Luxus Leverpostei - Telttur Te' Gyland By: October
Intro: Am G Am G Am G Am G
1. Vers:
[Am]Ferien den nærme seg,[G] selvfølgelig e æ blakk
[Dm]Ikkje ei jævla krona, nei eg[Am] trur æ fe[G]r makk
[Am]Nå reise snart alle, eg[G] kan ikje vera her
[Dm]Må finna på någe for [Am]eg e jo li[G]tt sær
Bridge: Am G Am G
2. Vers:
Leide oppå loftet, finne någe rart
Ut på tur d ska eg ja, d e nå klart
Ein gammal bag me stearinlys og ein sovepåse
Et hålete telt og ein fyrstikkdåse
Mellomspill: Am| G| Am| G|
Refreng:
Eg ska på[Am] telttur te[G] Gyland,[Am] me ein kasse[E] øl
Heilt [Am]aleina, kliss[C]blaude, stiv og [G]støl
Eg ska på[Am] telttur te[G] Gyland,[Am] me ein kasse[E] øl
Heilt [Am]aleina, kliss[C]blaude, stiv og [G]støl
Mellomspill: Am G Am G
3. Vers:
Eg kjem meg øve heia, sjøl om det va hardt
Må få opp teltet for sola forsvinne snart
Så begynne det og regne, ja det blåse opp te storm
Får åpna meg ein øl for å holda meg i form
Mellomspill: Am G Am G
Refreng:
Eg e på telttur på Gyland, me ein kasse øl
Heilt aleina, klissblaude, stiv og støl
Eg e på telttur på Gyland, me ein kasse øl
Heilt aleina, klissblaude, stiv og støl
Solo:
Refreng:
Eg e på telttur på Gyland, me ein kasse øl
Heilt aleina, klissblaude, stiv og støl
Eg e på telttur på Gyland, me ein kasse øl
Heilt aleina, klissblaude, stiv og støl
Her er soloen:
 
 E||------------------------|----------------------|---------------------|
 B||------------------------|----------------------|---------------------|
 G||------------------------|----------------------|---------------------|
 D||--10------9-------------|----------------------|--7--------5---------|
 A||-------------10---------|--7--7----5-----------|--------------7------|
 E||------------------------|-------------7--------|---------------------|
 -------------------|------------------------|----------------------|
 -------------------|------------------------|----------------------|
 -------------------|------------------------|----------------------|
 --5----------------|--10------9-------------|----------------------|
 -------------------|-------------10---------|--7--7----5-----------|
 -------------------|------------------------|-------------7--------|
 -------------------------|----------------------|-------||
 -------------------------|----------------------|-------||
 -------------------------|----------------------|-------||
 --7---9---10--------9----|--10----12------------|-------||
 ---------------10--------|----------------------|-------||
 -------------------------|----------------------|-------||


Important: The song above is NOT stored on the Chordie server. The original song is hosted at nortabs.net. Chordie works as a search engine and provides on-the-fly formatting. Chordie does not index songs against artists'/composers' will. To remove this song please click here.

Text color:
Chord color:
Chord grids: 
Font size:    
Page size: 

Am C Dm E G
Rate #1 of 1 versions

Login - add to songbook

SHARE PAGE  



You need to log in to post comments