Guitar Tabs, Chords and Lyrics
Update 25:10. 13:00. Site is back up running again. Songbooks are recovered. Woring on getting search back up..


Come Closer  Marit Larsen

Title: Come Closer
Artist: Marit Elisabeth Larsen
Album: Under the Surface
tabed By: Juan De Jesús Ayala Patiño -->Juandejesus18@hotmail.com
CHORDS
G 3 2 0 0 3 3
Cadd9 X 3 2 0 3 3
D X X 0 3 2 3
Em X 7 9 0 0 0 0 2 2 0 0 0
Em/D# X 6 5 0 0 0 X X 1 0 0 0
Em/D X 5 5 0 0 0 X X 0 0 0 0
C X 3 2 0 1 0
Cm X 3 5 5 4 3
Cadd9/B X 2 0 0 1 0
Am7/G 3 X 2 0 1 3
A# X 1 3 3 3 1
A#/A X 0 3 3 3 0
Gm7 3 X 3 3 3 X
A#/F 1 X 3 3 3 X
G/F X X 3 0 3 3
Em7/5 X X 2 0 3 3
G/D X X 0 0 3 3
Csus2 X 3 0 0 3 3
INTRO:
[G] [Cadd9]  
 
 e|------------0-------------------------------------
 B|----2---2-----3----2-----2---2---5--4-----2p0-----
 G|--5---5---5------5-----5---5---5--------5-----2p0-
 D|--------------------------------------------------
 A|--------------------------------------------------
 E|--------------------------------------------------

G Cadd9 (Start strumming since here)
 
 e|------------0----------------------
 B|----2---2-----3----2---------------
 G|--5---5---5------5-----5-4---------
 D|----------------------------5--5p2-
 A|-----------------------------------
 E|-----------------------------------

[G] [Cadd9]  
 
 e|------------0-------------------------------------
 B|----2---2-----3----2-----2---2---5--4-----2p0-----
 G|--5---5---5------5-----5---5---5--------------2p0-
 D|--------------------------------------------------
 A|--------------------------------------------------
 E|--------------------------------------------------

[G] [A#] [F] [G]  
 
 e|------------0----------------6-5-----3-
 B|----2---2-----3----2-------6--------3--
 G|--5---5---5------5-----5-7---------4---
 D|---------------------------------------
 A|---------------------------------------
 E|---------------------------------------

Give me an...
[Cadd9]  
 
 e|---------------------------------------------
 B|---5h6p5h6-5---------------------------------------
 G|--------------5h7-7-------------------------
 D|---------------------7h9-----
 A|-------------------------10--------------------
 E|---------------------------------------------

SOLO:
[G] [Cadd9]  
 
 e|-------------17-19------------20-----------
 B|--19-20-19---------20---15/17-----17\15----
 G|----------------------------------------17-
 D|-------------------------------------------
 A|-------------------------------------------
 E|-------------------------------------------

[G]  
 
 e|--------15----17-15\12\10------------------------
 B|--15h17----17-------------12\10/12-(12)h15p12\10-
 G|-------------------------------------------------
 D|-------------------------------------------------
 A|-------------------------------------------------
 E|-------------------------------------------------

[Cadd9] [G]  
 
 e|--15\----------------------------------------------
 B|--15\--12-15---------------------------------------
 G|----------------------12---------------------------
 D|----------------12h14-----14-12--------------------
 A|-------------15------------------15-14-12----------
 E|------------------------------------------15--14h15

[Cadd9] [G]  
 
 e|------------------------------------14h15p14-----
 B|---------------------------15-15-15----------15--
 G|-------------------------------------------------
 D|-----------12h14/17----19------------------------
 A|--12h14h15---------------------------------------
 E|-------------------------------------------------

[A#]  
 
 e|---------------------------------------------
 B|-------13------------------------------------
 G|-14/16---------------------------------------
 D|-----------14bu(15)-pb(15)bd14---------------
 A|---------------------------------------------
 E|---------------------------------------------

INTRO: Cadd9, (G,Cadd9)X2 G,A#,F
VERSE 1:
[G]Give me an invitation m[Cadd9]ore than a guess[G]
Give me a sign if only [Cadd9]one single breath[G]
I'll give you an emp[C]ty pa[G]ge
This is the time and plac[A#]e [F] [G]
VERSE 2:
What kind of truth lives in the a[Cadd9]bsence of trust?[G]
What is the use of holding back[Cadd9] on this much?[G]
My eyes are open wid[Cadd9]e[G]
Won't you let m[Cadd9]e inside?
CHORUS
D(strum)
Come closer, love
Cadd9 (palm mute)
I can't hear what you're saying
Don't mak[D]e it easy love
All the corners are[Cadd9] fraying
How can I please[D] you, love
When I don't know what [Em]you[Em/D#] waaaa[Em/D]aaaaa[C]aaaaaaaaaaaant?
It'[D]s a nice escape, but will it keep you warm at night?
I don't think so.
INTRO: G,Cadd9,G,A#,F
VERSE 3:
Uuh,[G] how about you tell me what you'[Cadd9];re doubting us [G]for?
What is wrong with both feet on this s[Cadd9]ide of the door?[G]
There is no easy w[C]ay [G]
I'll be the one [Cadd9]who stays
CHORUS
D(strum)
Come closer, love
Cadd9 (palm mute)
I can't hear what you're saying
Don't mak[D]e it easy love
All the corners are[Cadd9] fraying
How can I please[D] you, love
When I don't know what [Em]you[Em/D#] waaaa[Em/D]aaaaa[C]aaaaaaaaaaaant?
Am(strum)
It's a nice escape, but will it keep you warm at night?
D(strum)
It's a nice escape, but will it keep you warm at night?
I don??t think so.
SOLO: (G,Cadd9)x3 G,A#,F
BRIDGE:
You'[G/F];re so close[Em7/5] to me
You[G/D]9;re so f[Csus2]ar away
I don[A#]9;t know what y[A#/A]ou mean
You??re[Gm7] way out of[A#/F] reach
You[C]9;re so close[Cadd9/B] to me
You[Am7]9;re s[Am7/G]o far [Cm] away
CHORUS
Come closer, love
I can't hear what you're saying
Don??t make it easy love
All the corners are fraying
Won't you Co[D]me closer, love
I can't hear what yo[Cadd9]u're saying
How can I please[D] you, love
When I don't know what [Em]you[Em/D#] waaaa[Em/D]aaaaa[C]aaaaaaaaaaaant?
It'[Am]s a nice escape, but will it keep you warm at night?
D(strum)
It's a nice escape, but will it keep you warm at night?
(I don??t think so.)

Important: The song above is NOT stored on the Chordie server. The original song is hosted at nortabs.net. Chordie works as a search engine and provides on-the-fly formatting. Chordie does not index songs against artists'/composers' will. To remove this song please click here.

Text color:
Chord color:
Chord grids: 
Font size:    
Page size: 

A# A#/F Am Am7 Am7/G C Cadd9 Cm Csus2 D Em Em/D Em/D# F G G/D G/F Gm7
Rate #1 of 1 versions

Jango Player

Login - add to songbook

SHARE PAGE  



You need to log in to post comments