Guitar Tabs, Chords and Lyrics
Update 25:10. 13:00. Site is back up running again. Songbooks are recovered. Woring on getting search back up..


Only a Fool  Marit Larsen

Title: Only a Fool
Artist: Marit Elisabeth Larsen
Album: Under the Surface
tabed By: Juan De Jesús Ayala Patiño -->Juandejesus18@hotmail.com
CHORDS:
Dmaj7 X X 0 2 2 2
D6 X X 0 2 0 2
INTRO:
[D] [G]  
 
 e|---------------------------------
 B|---------------------------------
 G|--7--5h7-5-7--5h7-5-7-5-4----5h7-
 D|---------------------------7-----
 A|---------------------------------
 E|---------------------------------

[D] [G]  
 
 e|------------------5--------------
 B|----------------7---8-7-8--7-----
 G|--7--5h7-5-7--7--------------5h7-
 D|---------------------------------
 A|---------------------------------
 E|---------------------------------

PRE-CHORUS 1&2:
[A]  
 
 e|-----------17---------------17----
 B|--14----14-----14--------14----14-
 G|-----14-----------14--14----------
 D|----------------------------------
 A|----------------------------------
 E|----------------------------------

[G] [D]  
 
 e|-----------15---------------17-----
 B|--12----12-----12----------19---15-
 G|-----12-----------15-14--------14--
 D|-----------------------------------
 A|-----------------------------------
 E|-----------------------------------

[A]  
 
 e|-----------17---------------17----
 B|--14----14-----14--------14----14-
 G|-----14-----------14--14----------
 D|----------------------------------
 A|----------------------------------
 E|----------------------------------

[G] [D]  
 
 e|--------15----------5-6-7-6-5------
 B|-----12----------8------------8-7--
 G|--12-------------------------------
 D|-----------------------------------
 A|-----------------------------------
 E|-----------------------------------

(strum) 'cause only...
[D] [A] [G] [D]  
 
 e|-------------------------------------------
 B|--------10--------------------8------------
 G|-----11-----9--10-12-10-----7--------7-----
 D|--12----------------------9--------7-------
 A|----------------------------------------5--
 E|-------------------------------------------

...Isn??t it only fair that you try and let it go?
INTRO: D,G,D,G
VERSE 1:
[D]So you say I need to consider th[G]is
[D]Yours were the face that I couldn??t r[G]esist
[D]Yours was the fuel to the flames in my h[G]eart
[D]Mine were the words that would tear us ap[G]art
[D]Well I say I found the letters you wr[G]ote
[D]Mine was the smile and the life that you br[G]oke
[D]Mine was the story that you told your fr[G]iends
[D]Yours were the demons you couldn??t d[G]efend
PRE-CHORUS:
[A]Understand me, as of lately I??ve[G] learned a thing or t[D]wo
[A]There is just no way that I??ll be[G] coming home to you
CHORUS:
[D]??Cause only a foo[Dmaj7]l would do this again
[D6]Only a fool would l[Dmaj7]et you back in
[G]There is no you l[D]eft to embrace
[G]There is no word would m[A]ake it feel safe
[D]Love was a gift, st[Dmaj7]ubborn and wild
[D6]I was armed with the [Dmaj7]faith of a child
And y[G]ou were my joy, [D]you were my friend
[G]There is no going b[A]ack there again
C(strum) G(strum)
It??s more than you can ask of me my love
I??m comin[D]g out of nowhere
Em F#m G(strum)
It feels good here better than you know
Isn??t i[D]t only[A] fair that you[G] try and[A] let it go?
INTRO: D,G,D,G
VERSE 2:
[D]Yours was the ring that I started to w[G]ear
[D]Yours were the vows that went up in the [G]air
[D]Yours was the choice to stay away from h[G]er
[D]Mine was the dream that got lost in the st[G]ir
[D]These were the times I would call you my [G]own
[D]These were the times I were waiting at h[G]ome
PRE-CHORUS 2:
[A]I??ll tell you something, I??ve been changing afte[G]r what you put me thr[D]ough
[A]There is just no way that I??ll be[G] coming home to you
CHORUS:
[D]??Cause only a foo[Dmaj7]l would do this again
[D6]Only a fool would l[Dmaj7]et you back in
[G]There is no you l[D]eft to embrace
[G]There is no word would m[A]ake it feel safe
[D]Love was a gift, st[Dmaj7]ubborn and wild
[D6]I was armed with the [Dmaj7]faith of a child
And y[G]ou were my joy, [D]you were my friend
[G]There is no going b[A]ack there again
[D]??Cause only a foo[Dmaj7]l would do this again
[D6]Only a fool would l[Dmaj7]et you back in
[G]There is no you l[D]eft to embrace
[G]There is no word would m[A]ake it feel safe
C(strum) G(strum)
It??s more than you can ask of me my love
I??m comin[D]g out of nowhere
Em F#m G(strum)
It feels good here better than you know
Isn??t i[D]t only[A] fair that you[G] try and[A] let it go?
(Play the intro part over and over singing the end)
Let it go
Let it go
I said only a fool
Only a fool

Important: The song above is NOT stored on the Chordie server. The original song is hosted at nortabs.net. Chordie works as a search engine and provides on-the-fly formatting. Chordie does not index songs against artists'/composers' will. To remove this song please click here.

Text color:
Chord color:
Chord grids: 
Font size:    
Page size: 

A D D6 Dmaj7 G
Rate #1 of 3 versions

Jango Player

Login - add to songbook

SHARE PAGE  




You need to log in to post comments