Guitar Tabs, Chords and Lyrics
Update 25:10. 13:00. Site is back up running again. Songbooks are recovered. Woring on getting search back up..


Solid Ground  Marit Larsen

Title: Solid Ground
Artist: Marit Elisabeth Larsen
Album: Under the Surface
tabed By: Juan De Jesús Ayala Patiño -->Juandejesus18@hotmail.com
Capo on 4th fret
CHORDS: (Related to Capo)
Cmaj7 X 3 2 0 0 0
Cmaj7/C# X 4 2 0 0 0
Dsus2 X X 0 2 3 0
G6/B X 2 0 0 3 0
SOLO: (Without Capo)
[Emaj7] [Emaj7/F] [F#] [B6/D#] [Emaj7] [Emaj7/F]  
 
 e|------4------4------6-----6-----7-----7-
 B|----5------6------7-----7-----9-----9---
 G|--4------4------6-----8-----9-----10----
 D|----------------------------------------
 A|----------------------------------------
 E|----------------------------------------

[F#] [B6/D#] [Emaj7] [Emaj7/F] [F#] [B6/D#]  
 
 e|------9-------11------11-----13-----14-----14-
 B|----11------11------12-----12-----14-----16---
 G|--11------11------13-----13-----15-----15-----
 D|----------------------------------------------
 A|----------------------------------------------
 E|----------------------------------------------

[Emaj7] [Emaj7/F]  
 
 e|------16-------16--
 B|----17------18-----
 G|--16-----16--------
 D|-------------------
 A|-------------------
 E|-------------------

Well the great scale in the solo part sounds something like this...
(two 8th down)
F# scale
 
 e|-------------------------------------
 B|-------------------------------------
 G|-------------------------------------
 D|-------------------------------------
 A|--------------------------6---6---6--
 E|--4-2-4-2-4-6-7-6-7-6-7-9---9---9----
 e|-------------------------9-11-14--
 B|------------------7-9-11----------
 G|------------6-8-9-----------------
 D|------6-8-9-----------------------
 A|--7-9-----------------------------
 E|----------------------------------

INTRO: Cmaj7, Cmaj7/C#, Dsus2, G6/B, Cmaj7, Cmaj7/C#, Dsus2
VERSE 1:
[Cmaj7]Cannot fall[Cmaj7/C#], never do r[Dsus2]egret
[G6/B]Know just what is b[Cmaj7]eing said
[Cmaj7/C#]know the risk you [Dsus2]take
Keep your[G6/B] head above it a[Cmaj7]ll
Sure y[Cmaj7/C#]ou can fall
but[Dsus2] not n[G6/B]ow you gotta pr[Cmaj7]ove
something [Cmaj7/C#]new, being y[Dsus2]ou, being you
VERSE 2:
[Cmaj7]Can't fe[Cmaj7/C#]el, keep from a[Dsus2]sking why
[G6/B]be the strongest[Cmaj7] at goodbyes
[Cmaj7/C#]know your place in l[Dsus2]ife
[G6/B]now expand your wings and f[Cmaj7]ly
it[Cmaj7/C#] reaches high but n[Dsus2]ot,
[G6/B]enough you seem to m[Cmaj7]e
so incompl[Cmaj/C#]ete, swept off your f[Dsus2]eet
CHORUS:
And let me tell you they will [C]always p[G]ull you[D] down
Before you know it they will[C] take your [G]smile and [D]push you around
They will[C] fight and str[G]uggle
to b[B7]lur and tr[Em]ouble
C D (INTRO)
your sense of solid ground
VERSE 3:
[Cmaj7]Cannot know,[Cmaj7/C#] lose your self[Dsus2]-control
[G6/B]be and angel[Cmaj7] over all
[Cmaj7/C#]know your secret [Dsus2]way
[G6/B]laugh at everything they [Cmaj7]say
[Cmaj7/C#]Will you remain the [Dsus2]same?
[G6/B]And now you dare[Cmaj7] not see
what??s lett[Cmaj7/C#]ing go
inside of [Dsus2]me,is it me?
CHORUS:
And let me tell you they will [C]always p[G]ull you[D] down
Before you know it they will[C] take your [G]smile and [D]push you around
They will[C] fight and str[G]uggle
to b[B7]lur and tr[Em]ouble
C D (INTRO)
your sense of solid ground
Keep your head above it [Cmaj7]all, s[Cmaj7/C#]ure you can fall
[Dsus2]but not now you gotta prove[Cmaj7] [Cmaj7/C#] [Dsus2]
CHORUS:
And they will [C]always p[G]ull you[D] down
Before you know it they will[C] take your [G]smile and [D]push you around
hey will[C] haunt your [G]every [D]dream
they will [C]make you [G]come und[D]one at the seams
They will[C] fight and str[G]uggle
to b[B7]lur and tr[Em]ouble
C D (INTRO)
your sense of solid ground
Keep your head above it [Cmaj7]all
Sur[Cmaj7/C#]e you can fall
bu[Dsus2]t not [G6/B]now you gotta [Cmaj7]prove
Something [Cmaj7/C#]new, being y[Dsus2]ou, being you[D]

Important: The song above is NOT stored on the Chordie server. The original song is hosted at nortabs.net. Chordie works as a search engine and provides on-the-fly formatting. Chordie does not index songs against artists'/composers' will. To remove this song please click here.

Text color:
Chord color:
Chord grids: 
Font size:    
Page size: 

B7 C Cmaj7 Cmaj7/C# D Dsus2 Em Emaj7 F# G G6/B
Rate #1 of 1 versions

Jango Player

Login - add to songbook

SHARE PAGE  




You need to log in to post comments