Guitar Tabs, Chords and Lyrics
Major upgrade!! After one year development the new version of Chordie is now online! Please give feedback.


A National Acrobat   Black Sabbath

 
 D-------------------------------------------------------
 A-------------------------------------------------------
 F------->->---------------------->->--5h4---------------
 C--0h2--2-2--0h2--0h2--5-4--0h2--2-2------5--0-4h5------
 G--------------------------------------------------5(v)-
 D-------------------------------------------------------

 


 


 Fill 1 :


 


 

 
 D------------------------------------------------------
 A------------------------------------------------------
 F------------7-7---------------------------------------
 C--2-2--5-5--7-7--5-5----------------------------------
 G--2-2--5-5--5-5--5-5----------------------------------
 D--0-0--3-3-------3-3----------------------------------

 


 


 I am the world that hides...


 


 Riff 2 :


 


 I think Iommi uses some kind of device here :


 


 

 
 D----------------------------------------------------
 A----------------------------------------------------
 F-------------------------------12\-----------12\----
 C--0h2--0-0h2-0h2-5-4-0--0-0h2--12\--0-0-0-0--12\----
 G----------------------------------------------------
 D----------------------------------------------------

 


 - P.M.-


 


 Main Solo (The one on the right track) :


 


 

 
 D--------------------------------------14p11---------------------------- 

 


 [----]  

 
 A--14p11----14p11-13-14p11-13-14p11----------14--14p11----14p11--------- 

 


 [----]  


 

 
 F--------11-------------------------13-----------------11-------13-13-13 

 


 p11-


 

 
 C----------------------------------------------------------------------- 

 


 [----]  


 

 
 G----------------------------------------------------------------------- 

 


 [----]  


 

 
 D----------------------------------------------------------------------- 

 


 [----]  


 

 
 D-------------------------14b16-14b16-14b16r14-11----11-11-------------- 

 


 [----]  


 

 
 A-------------------------------------------------14-------14----------- 

 


 [----]  

 
 F----13-13-13-13b14r13-11-------------------------------------15\13\11-- 

 


 [----]  


 

 
 C-13-------------------------------------------------------------------- 

 


 [----]  


 

 
 G----------------------------------------------------------------------- 

 


 [----]  


 

 
 D----------------------------------------------------------------------- 

 


 [----]  


 

 
 D----------------------------------13b14-13b14-13b14-13b14-13b14-11----1 

 


 [1---]  


 

 
 A-------------------------------------------------------------------14-- 

 


 [----]  

 
 F-13b15r13-11-13-13b15r13-11-------------------------------------------- 

 


 [----]  


 

 
 C----------------------------13-13-------------------------------------- 

 


 [----]  


 

 
 G----------------------------------------------------------------------- 

 


 [----]  


 

 
 D----------------------------------------------------------------------- 

 


 [----]  


 

 
 D----11-11\---------------------------------------14b16-14b16-14b16r14-1 

 


 [1---]  


 

 
 A-14-------14b16-14-11-------------------------------------------------- 

 


 [----]  

 
 F----------------------13p11-13p11-13-13b14r13-11----------------------- 

 


 [----]  


 

 
 C----------------------------------------------------------------------- 

 


 [----]  


 

 
 G----------------------------------------------------------------------- 

 


 [----]  


 

 
 D----------------------------------------------------------------------- 

 


 [----]  


 

 
 D-14p11----------------------------------------------------------------- 

 


 [----]  

 
 A-------14-14p11----14p11----------------------------------------------- 

 


 [----]  

 
 F----------------13-------13-13b15r13-11-13-13b15r13-11----------------- 

 


 [----]  

 
 C-------------------------------------------------------13-11-13\------- 

 


 [----]  


 

 
 G----------------------------------------------------------------------- 

 


 [----]  


 

 
 D----------------------------------------------------------------------- 

 


 [----]  


 


 Fill 2 :


 This part 3 x


 

 
 D------------------------------------- ---------------
 A------------------------------------- ---------------
 F--7--7-7--2--------7--7-7--2--------- ---------------
 C--7--7-7--2-----5--7--7-7--2-----5--- -/9-9-9-9------
 A--5--5-5--0--0--5--5--5-5--0--0--5--- -/9-9-9-9------
 D----------------3----------------3--- -/7-7-7-7------

 


 


 And into riff 3a :


 


 

 
 D-----------------------------------------------------
 A-----------------------------------------------------
 F-----------------------------------------------------
 C-----0--2/4--2-----0--2/4/6--2-----0--2/4--2--0------
 G--4-------------4---------------4----------------4---
 D-----------------------------------------------------

 


 


 Riff 3b:


 


 

 
 D-----------------------------------------------------
 A-----------------------------------------------------
 F-----0--2/4--2-----0--2/4/6--2-----0--2/4--2--0------
 C--4-------------4---------------4----------------4---
 G-----------------------------------------------------
 D-----------------------------------------------------


Important: The song above is NOT stored on the Chordie server. The original song is hosted at tabfu.thudspace.net. Chordie works as a search engine and provides on-the-fly formatting. Chordie does not index songs against artists'/composers' will. To remove this song please click here.

This song is displayed as text-only. Transposing and tuning is only available for chordpro-songs.
Rate #1 of 7 versions

Login - add to songbook

SHARE PAGE  



You need to log in to post comments