Guitar Tabs, Chords and Lyrics
Major upgrade!! After one year development the new version of Chordie is now online! Please give feedback.


Fluff   Black Sabbath

 
 --------------------------------------------------------

 


 This is as complete as I could get it.


 


 Recipe: 3 guitars


 1 piano/synth


 1 harpsichord/synth


 Detune guitars slightly (flat)


 Mix and serve.


 


 Key: [#] = grace note (really short) . (below #) = staccato


 (#) = ghost note / or \ = slide p = pull-off h = hammer-on


 R = rest *---* = repeat section


 


 ++++++++++++Fluff by Black Sabbath (on Sabbath Bloody Sabbath)+++++++++++++++


 


 Background guitar (slowly):


 

 
 -----------2------------------2------- ----------2-----------------2--------
 -------3------3------------3-----3---- -------0-----0-----------0-----0-----
 ---2--------------2-----2-----------2- ----0-----------0-----0-----------0--
 0--------------------0---------------- -0-----------------0-----------------
 -------------------------------------- -------------------------------------
 -------------------------------------- ------------------------------------- 

 


 


 gtr. 2 :


 

 
 -------------------------------------- -------------------------------------
 -------------------------------------- -------------------------------------
 -------------------------------------- -------------------------------------
 4-5-7----------------------------7/9-- -------------------------------------
 -------------------------------------- -7-----------------------------------
 -------------------------------------- ------------------------------------- 

 


 


 Gtr. 1


 

 
 ----------2-----------------2-------- ----------2-----------------2-----3--
 -------3-----3-----------3-----3----- -------0-----0-----------0-----------
 ----2-----------2-----2-----------2-- ----0-----------0-----0--------------
 -0-----------------0----------------- -0-----------------0-----------------
 ------------------------------------- -------------------------------------
 ------------------------------------- ------------------------------------- 

 


 Gtr. 2


 

 
 ------------------------------------- -------------------------------------
 ------------------------------------- -------------------------------------
 ------------------------------------- -------------------------------------
 -4-5-7--------------------------7/9-- ---------------------------------7-6-
 ------------------------------------- -7-----------------------------------
 ------------------------------------- ------------------------------------- 

 


 


 Gtr. 1


 

 
 -------0-----------0----- -------0-----------0-------
 -----0---0-------0---0--- -----0---0-------0---0-----
 ---7-------7---7-------7- ---7-------7---7-------7---
 -5-----------5----------- -5-----------5-----------5-
 ------------------------- ---------------------------
 ------------------------- --------------------------- 

 


 Gtr. 2


 

 
 ------------------------- ---------------------------
 ------------------------- ---------------------------
 ------------------------- ---------------------------
 -5-----------5----------- -7-----------[7]/9---------
 ------------------------- ---------------------------
 ------------------------- --------------------------- 

 


 


 Gtr. 1


 

 
 -------------------- ------------------- -------0-----------0-----
 -----------8-------- ----------8-------- -----0---0-------0---0---
 --------9-----9----- -------9-----9----- ---7-------7---7-------7-
 -----7-----------7-- ----7-----------7-- -5-----------5-----------
 --0----------------- -0----------------- -------------------------
 -------------------- ------------------- ------------------------- 

 


 Gtr. 2


 

 
 -------------------- ------------------- -------------------------
 -------------------- ------------------- -------------------------
 -------------------- ------------------- -------------------------
 --7----------------- --------------7-6-- -5-----------5-----------
 -------------------- ------------------- -------------------------
 -------------------- ------------------- ------------------------- 

 


 


 Gtr. 1


 

 
 -------0-----------0----- ------------------- -------------------
 -----0---0-------0---0--- ----------8-------- ----------8--------
 ---7-------7---7-------7- -------9-----9----- -------9-----9-----
 -5-----------5----------- ----7-----------7-- ----7-----------7--
 ------------------------- -0----------------- -0-----------------
 ------------------------- ------------------- ------------------- 

 


 Gtr. 2


 

 
 ------------------------- ------------------- -------------------
 ------------------------- ------------------- -------------------
 ------------------------- ------------------- -------------------
 -4-----------0----------- -0h2--------------- -------------------
 ------------------------- ------------------- -------------------
 ------------------------- ------------------- ------------------- 

 


 


 


 Gtr. 2


 

 
 --------------------------------- -----------------------------------
 --------------------------------- -----------------------------------
 --------------------------------- -----------------------------------
 -4-5-7----------------------7/9-- -----------------------------------
 --------------------------------- -7---------------------------------
 --------------------------------- ----------------------------------- 

 


 Gtr. 3


 

 
 --------------------------------- -----------------------------------
 -------------------5\3----------- ------------------------10----10---
 -----------------2--------------- ----------------[9]/11--11-11-11\9-
 ---------------0----------------- -----------------------------------
 --------------------------------- -----------------------------------
 --------------------------------- ----------------------------------- 

 


 


 


 Gtr. 2


 

 
 ---------------------------------------------- -----------------------------
 ---------------------------------------------- -----------------------------
 ---------------------------------------------- -----------------------------
 -4-5-7------------------------------------7/9- -------------------------7-6-
 ---------------------------------------------- -7---------------------------
 ---------------------------------------------- ----------------------------- 

 


 Gtr. 3


 

 
 ---------------------------------------------- -----------------------------
 ----------[10]/12-(10)------[10]/12-10-------- --------------10-12----------
 -----------------------(12)------------------- -------[9]/11-------11\9-----
 ---------------------------------------------- -----------------------------
 ---------------------------------------------- -----------------------------
 ---------------------------------------------- ----------------------------- 

 


 


 Gtr. 1


 

 
 -------0-----------0----- -------0-----------0-------
 -----0---0-------0---0--- -----0---0-------0---0-----
 ---7-------7---7-------7- ---7-------7---7-------7---
 -5-----------5----------- -5-----------5-----------5-
 ------------------------- ---------------------------
 ------------------------- --------------------------- 

 


 Gtr. 2


 

 
 ------------------------- ---------------------------
 ------------------------- ---------------------------
 ------------------------- ---------------------------
 -5-----------5----------- -7-----------[7]/9---------
 ------------------------- ---------------------------
 ------------------------- --------------------------- 

 


 


 Gtr. 1


 

 
 -------------------- ------------------- -------0-----------0-----
 -----------8-------- ----------8-------- -----0---0-------0---0---
 --------9-----9----- -------9-----9----- ---7-------7---7-------7-
 -----7-----------7-- ----7-----------7-- -5-----------5-----------
 --0----------------- -0----------------- -------------------------
 -------------------- ------------------- ------------------------- 

 


 Gtr. 2


 

 
 -------------------- ------------------- -------------------------
 -------------------- ------------------- -------------------------
 -------------------- ------------------- -------------------------
 --7----------------- --------------7-6-- -5-----------5-----------
 -------------------- ------------------- -------------------------
 -------------------- ------------------- ------------------------- 

 


 


 Gtr. 1


 

 
 -------0-----------0----- ------------------- -------------------
 -----0---0-------0---0--- ----------8-------- ----------8--------
 ---7-------7---7-------7- -------9-----9----- -------9-----9-----
 -5-----------5----------- ----7-----------7-- ----7-----------7--
 ------------------------- -0----------------- -0-----------------
 ------------------------- ------------------- ------------------- 

 


 Gtr. 2


 

 
 ------------------------- ------------------- -------------------
 ------------------------- ------------------- -------------------
 ------------------------- ------------------- -------------------
 -4-----------0----------- -0h2--------------- -------------------
 ------------------------- ------------------- -------------------
 ------------------------- ------------------- ------------------- 

 


 


 Gtr. 2


 

 
 ---------------------------------------------------------------
 ---------------------------------------------------------------
 *----------------------------------12------------------------*-
 *-5--------5-7-9-[9]/12----[12]/14----[14]\12-------9--9/12--*-
 ----------------------------------------------------.----------
 ---------------------------------------------------------------
 ----------------------------- --------------------- ----------------------
 ----------------------------- --------------------- ----------------------
 ----------------------------- --------------------- ----------------------
 -R---10--9--10--[10]/12------ -/9--9-\-7-\-5-/9---- -10-----9--10--12-----
 ----------------------------- --.------------------ ----------------------
 ----------------------------- --------------------- ----------------------
 ---------------------------- --------------------
 ---------------------------- --------------------
 ---------------------------- --------7-----------
 --11--11------9--9-\-7------ -[7]/9-----[9]\7----
 --------------.------------- --------------------
 ---------------------------- -------------------- 

 


 


 


 Gtr. 2


 

 
 --------------------------------- -----------------------------------
 --------------------------------- -----------------------------------
 --------------------------------- -----------------------------------
 -4-5-7----------------------7/9-- -----------------------------------
 --------------------------------- -7---------------------------------
 --------------------------------- ----------------------------------- 

 


 Gtr. 3


 

 
 --------------------------------- -----------------------------------
 -------------------5\3----------- ------------------------10----10---
 -----------------2--------------- ----------------[9]/11--11-11-11\9-
 ---------------0----------------- -----------------------------------
 --------------------------------- -----------------------------------
 --------------------------------- ----------------------------------- 

 


 


 Gtr. 2


 

 
 ---------------------------------------------- -----------------------------
 ---------------------------------------------- -----------------------------
 ---------------------------------------------- -----------------------------
 -4-5-7------------------------------------7/9- -------------------------7-6-
 ---------------------------------------------- -7---------------------------
 ---------------------------------------------- ----------------------------- 

 


 Gtr. 3


 

 
 ---------------------------------------------- -----------------------------
 ----------[10]/12-(10)------[10]/12-10-------- ------12p(10)---10-----------
 -----------------------(12)------------------- --------------11---[11]\9----
 ---------------------------------------------- -----------------------------
 ---------------------------------------------- -----------------------------
 ---------------------------------------------- ----------------------------- 

 


 


 


 Gtr. 1


 

 
 -------0-----------0----- -------0-----------0-------
 -----0---0-------0---0--- -----0---0-------0---0-----
 ---7-------7---7-------7- ---7-------7---7-------7---
 -5-----------5----------- -5-----------5-----------5-
 ------------------------- ---------------------------
 ------------------------- --------------------------- 

 


 Gtr. 2


 

 
 ------------------------- ---------------------------
 ------------------------- ---------------------------
 ------------------------- ---------------------------
 -5-----------5----------- -7-----------[7]\9---------
 ------------------------- ---------------------------
 ------------------------- --------------------------- 

 


 


 Gtr. 1


 

 
 -------------------- ------------------- -------0-----------0-----
 -----------8-------- ----------8-------- -----0---0-------0---0---
 --------9-----9----- -------9-----9----- ---7-------7---7-------7-
 -----7-----------7-- ----7-----------7-- -5-----------5-----------
 --0----------------- -0----------------- -------------------------
 -------------------- ------------------- ------------------------- 

 


 Gtr. 2


 

 
 -------------------- ------------------- -------------------------
 -------------------- ------------------- -------------------------
 -------------------- ------------------- -------------------------
 --7----------------- --------------7-6-- -5-----------5-----------
 -------------------- ------------------- -------------------------
 -------------------- ------------------- ------------------------- 

 


 


 


 Gtr. 1


 

 
 -------0-----------0----- ------------------- -------------------
 -----0---0-------0---0--- ----------8-------- ----------8--------
 ---7-------7---7-------7- -------9-----9----- -------9-----9-----
 -5-----------5----------- ----7-----------7-- ----7-----------7--
 ------------------------- -0----------------- -0-----------------
 ------------------------- ------------------- ------------------- 

 


 Gtr. 2


 

 
 ------------------------- ------------------- -------------------
 ------------------------- ------------------- -------------------
 ------------------------- ------------------- -------------------
 -4-----------0----------- -0h2--------------- -------------------
 ------------------------- ------------------- -------------------
 ------------------------- ------------------- ------------------- 

 


 


 


 Gtr. 2


 

 
 --------------------------------- -----------------------------------
 --------------------------------- -----------------------------------
 --------------------------------- -----------------------------------
 -4-5-7----------------------7/9-- -----------------------------------
 --------------------------------- -7---------------------------------
 --------------------------------- ----------------------------------- 

 


 Gtr. 3


 

 
 --------------------------------- -----------------------------------
 -------------------5\3----------- ------------------------10----10---
 -----------------2--------------- ----------------[9]/11--11-11-11\9-
 ---------------0----------------- -----------------------------------
 --------------------------------- -----------------------------------
 --------------------------------- ----------------------------------- 

 


 


 


 Gtr. 2


 

 
 ---------------------------------------------- -----------------------------
 ---------------------------------------------- -----------------------------
 ---------------------------------------------- -----------------------------
 -4-5-7------------------------------------7/9- -------------------------7-6-
 ---------------------------------------------- -7---------------------------
 ---------------------------------------------- ----------------------------- 

 


 Gtr. 3


 

 
 ---------------------------------------------- -----------------------------
 ----------[10]/12-(10)------[10]/12-10-------- --------------10-12----------
 -----------------------(12)------------------- -------[9]/11-------11\9-----
 ---------------------------------------------- -----------------------------
 ---------------------------------------------- -----------------------------
 ---------------------------------------------- ----------------------------- 

 


 


 Gtr. 1


 

 
 -------0-----------0----- -------0-----------0-------
 -----0---0-------0---0--- -----0---0-------0---0-----
 ---7-------7---7-------7- ---7-------7---7-------7---
 -5-----------5----------- -5-----------5-----------5-
 ------------------------- ---------------------------
 ------------------------- --------------------------- 

 


 Gtr. 2


 

 
 ------------------------- ---------------------------
 ------------------------- ---------------------------
 ------------------------- ---------------------------
 -5-----------5----------- -7-----------[7]/9---------
 ------------------------- ---------------------------
 ------------------------- --------------------------- 

 


 


 Gtr. 1


 

 
 -------------------- ------------------- -------0-----------0-----
 -----------8-------- ----------8-------- -----0---0-------0---0---
 --------9-----9----- -------9-----9----- ---7-------7---7-------7-
 -----7-----------7-- ----7-----------7-- -5-----------5-----------
 --0----------------- -0----------------- -------------------------
 -------------------- ------------------- ------------------------- 

 


 Gtr. 2


 

 
 -------------------- ------------------- -------------------------
 -------------------- ------------------- -------------------------
 -------------------- ------------------- -------------------------
 --7----------------- --------------7-6-- -5-----------5-----------
 -------------------- ------------------- -------------------------
 -------------------- ------------------- ------------------------- 

 


 


 Gtr. 1


 

 
 -------0-----------0----- ------------------- -------------------
 -----0---0-------0---0--- ----------8-------- ----------8--------
 ---7-------7---7-------7- -------9-----9----- -------9-----9-----
 -5-----------5----------- ----7-----------7-- ----7-----------7--
 ------------------------- -0----------------- -0-----------------
 ------------------------- ------------------- ------------------- 

 


 Gtr. 2


 

 
 ------------------------- ------------------- -------------------
 ------------------------- ------------------- -------------------
 ------------------------- ------------------- -------------------
 -4-----------0----------- -0h2--------------- -------------------
 ------------------------- ------------------- -------------------
 ------------------------- ------------------- ------------------- 

 


 


 Gtr. 2


 

 
 ------------
 ------------
 ------------
 -5-p-4------
 --------5---
 ------------ 

 


 Gtrs. 1 & 3


 

 
 ------------
 ------------
 -2----------
 -0----------
 -0----------
 ------------ 

 


 


 I hope I didn't screw up with this editor -- try it and see....


 


 -Legion


 

 
 -----------------------------------------------------------------


Important: The song above is NOT stored on the Chordie server. The original song is hosted at tabfu.thudspace.net. Chordie works as a search engine and provides on-the-fly formatting. Chordie does not index songs against artists'/composers' will. To remove this song please click here.

This song is displayed as text-only. Transposing and tuning is only available for chordpro-songs.
Rate #1 of 10 versions

Jango Player

Login - add to songbook

SHARE PAGE  




You need to log in to post comments