Guitar Tabs, Chords and Lyrics
Major upgrade!! After one year development the new version of Chordie is now online! Please give feedback.


Comedown   Bush

 
 ------0-------0------0----------
 --------0------0------0------0--
 --6-6-----4-4-----2-2----3-3--3-
 --6-6-----4-4-----2-2----4-4----
 --4-4-----2-2-----0-0----4-4----
 -------------------------2-2----

 


 


 Verse 1:


 


 Love and hate / Get it wrong


 She cut me right back down to size


 Sleep the day / Let it fade


 Who was there to take your place?


 


 RIFF 1


 


 Know one knows / Never will


 Mostly me / But mostly you


 What do you say / Do you do


 When it all comes down?


 


 Chorus (twice) :


 


 

 
 ------------------------------------------------------------------------

 


 [---]  


 

 
 ------------------------------------------------------------------------

 


 [---]  


 

 
 ------------------------------------------------------------------------

 


 [---]  


 

 
 --9----7----1-------9----7----3----4------------------------------------

 


 [---]  


 

 
 --9----7----1-------9----7----3----4------------------------------------

 


 [---]  


 

 
 --7----5----3-------7----5----1----2------------------------------------


Important: The song above is NOT stored on the Chordie server. The original song is hosted at tabfu.thudspace.net. Chordie works as a search engine and provides on-the-fly formatting. Chordie does not index songs against artists'/composers' will. To remove this song please click here.

This song is displayed as text-only. Transposing and tuning is only available for chordpro-songs.
Rate #3 of 6 versions

Jango Player

Login - add to songbook

SHARE PAGE  




You need to log in to post comments