Guitar Tabs, Chords and Lyrics
Major upgrade!! After one year development the new version of Chordie is now online! Please give feedback.


Game On  Catatonia

Date: Sun, 12 Apr 1998 23:25:26 -0500
From: patrick jordan
Subject: c/catatonia/game_on.tab
Artist: Catatonia Song: Game On
>From the album, "International Velvet."
Warner Music UK
Transcriber: Lucy Jordan
INTRO:
[D]  
 
 E-2-2-0---0-0-0-
 B-3-3-3---3-3-3-
 G-2-2-2---2-2-2- (repeat 4 times)
 D-0-0-0---0-0-0-
 A---------------
 E---------------

Verse:
 
 E---2---3---5---3---2---0----3-3----2-2--
 B-3---3---3---3---3---3------3-3----3-3--
 G----------------------------0-0----4-4--
 D----------------------------0-0----4-4--
 A----------------------------2-2----2-2--
 E----------------------------3-3----2-2--

[D]You know the time to act is now [G] d[Bm]o,da,da,do
 
 E---2---3---5---3---2---0----3-3----2-2--
 B-3---3---3---3---3---3------3-3----3-3--
 G----------------------------0-0----4-4--
 D----------------------------0-0----4-4--
 A----------------------------2-2----2-2--
 E----------------------------3-3----2-2--

[D]Before the sands of time run out[G] do,da,da,d[Bm]o
 
 E---0---------------------2---
 B---0---------------------2---
 G---0---------------------3---
 D---2---------------------4---
 A---2---------------------4---
 E---0---------------------2---

[Em]I know that I could never, [F#]Fall from grace, I'm far too clever
 
 E---2---3---5---3---2---0----3-3----2-2--
 B-3---3---3---3---3---3------3-3----3-3--
 G----------------------------0-0----4-4--
 D----------------------------0-0----4-4--
 A----------------------------2-2----2-2--
 E----------------------------3-3----2-2--

[D]I will achieve my destiny [G]do,da,da,do[Bm]
 
 E---2---2--3---5---3---2---0----3-3----2-2--
 B-3---3--3---3---3---3---3------3-3----3-3--
 G-------------------------------0-0----4-4--
 D-------------------------------0-0----4-4--
 A-------------------------------2-2----2-2--
 E-------------------------------3-3----2-2--

[D]My stars assent a certainty[G] do,da,da,do[Bm]
 
 E---0---------------------2---
 B---0---------------------2---
 G---0---------------------3---
 D---2---------------------4---
 A---2---------------------4---
 E---0---------------------2---

[Em]I know that I could never, F[F#]all from grace, I'm far too clever
[E-3----]  
[B-3---]G-0---
D-0---
[A-2---]  
[E-3---]  
[G]Do, do, do , do, na, na
[E-2-]  
[B-3-]  
[G-2-]D-0-
[A---]  
[E---]  
[D]Do, do, do, do, na, na
 
 E----------------------------
 B----------------------------
 G----------------------------
 D------------2-4-5-4-2-0-----
 A------2-4-5-----------------
 E-2-3-5-----------------------

[G]Do, do, do, do, na,na
 
 E-------------
 B-------------
 G-------------
 D-------------
 A-------2-4-5-
 E-2-3-5-------

[D]Do,do,do,do,na,n[G]a
 
 E-------------
 B-------------
 G--------------
 D-------------
 A-------2-4-5-
 E-2-3-5-------

Boy sees, boy takes, bo[D]y hooked
 
 E-------------
 B-------------
 G--------------
 D-------------
 A-------2-4-5-
 E-2-3-5-------

[G]And the subject's closed[D]
 
 E----------------------------0---2-----
 B----------------------------0-----3---
 G----------------------------0---------
 D---------------9-7---5-4----2-------2-
 A-------2-4-5-7-----5--------2---------
 E-2-3-5----------------------0---------

[G]Worst case scena[D]rio becomes real[Em]
[E-2-]  
[B-2-]  
[G-3-]  
[D-4-]  
[A-4-]  
[E-2-]  
[F#]It don't show
 
 E---2---3---5---3---2---0----3-3----2-2--
 B-3---3---3---3---3---3------3-3----3-3--
 G----------------------------0-0----4-4--
 D----------------------------0-0----4-4--
 A----------------------------2-2----2-2--
 E----------------------------3-3----2-2--

[D]No clever clevers can dis[G]suade do,d[Bm]a,da,do
 
 E---2---3---5---3---2---0----3-3----2-2--
 B-3---3---3---3---3---3------3-3----3-3--
 G----------------------------0-0----4-4--
 D----------------------------0-0----4-4--
 A----------------------------2-2----2-2--
 E----------------------------3-3----2-2--

[D]>From tougher substance I was ma[G]de do,da,[Bm]da,do
 
 E---0---------------------2---
 B---0---------------------2---
 G---0---------------------3---
 D---2---------------------4---
 A---2---------------------4---
 E---0---------------------2---

[Em]I know that I could never, F[F#]all from grace, I'm far too clever
 
 E----------------------------
 B----------------------------
 G----------------------------
 D------------2-4-5-4-2-0-----
 A------2-4-5-----------------
 E-2-3-5-----------------------

[G]Do, do, do , do, na, na
 
 E-------------
 B-------------
 G-------------
 D-------------
 A-------2-4-5-
 E-2-3-5-------

[D]Do, do, do, do, na, na
 
 E----------------------------
 B----------------------------
 G----------------------------
 D------------2-4-5-4-2-0-----
 A------2-4-5-----------------
 E-2-3-5-----------------------

[G]Do, do, do, do, na,na
 
 E-------------
 B-------------
 G-------------
 D-------------
 A-------2-4-5-
 E-2-3-5-------

[D]Do,do,do,do,na,n[G]a
 
 E-------------
 B-------------
 G--------------
 D-------------
 A-------2-4-5-
 E-2-3-5-------

Boy sees, boy takes, bo[D]y hooked
 
 E-------------
 B-------------
 G--------------
 D-------------
 A-------2-4-5-
 E-2-3-5-------

[G]And the subject's closed[D]
 
 E----------------------------0---2-----
 B----------------------------0-----2---
 G----------------------------0---------
 D---------------9-7---5-4----2-------2-
 A-------2-4-5-7-----5--------2---------
 E-2-3-5----------------------0---------

[G]Worst case scena[D]rio becomes real[Em]
[E-2-]  
[B-2-]  
[G-3-]  
[D-4-]  
[A-4-]  
[E-2-]  
[F#]It don't show
 
 E---2---3---5---3---2---0----3-3----2-2--
 B-3---3---3---3---3---3------3-3----3-3--
 G----------------------------0-0----4-4--
 D----------------------------0-0----4-4--
 A----------------------------2-2----2-2--
 E----------------------------3-3----2-2--

[D]You know the time to act is no[G]w do-[Bm]da-do

Important: The song above is NOT stored on the Chordie server. The original song is hosted at tabfu.thudspace.net. Chordie works as a search engine and provides on-the-fly formatting. Chordie does not index songs against artists'/composers' will. To remove this song please click here.

Text color:
Chord color:
Chord grids: 
Font size:    
Page size: 

Bm D Em F# G
Rate #1 of 4 versions

Jango Player

Login - add to songbook

SHARE PAGE  




You need to log in to post comments