Guitar Tabs, Chords and Lyrics
Major upgrade!! After one year development the new version of Chordie is now online! Please give feedback.


Recovering the Satellites  Counting Crows

Date: Tue, 19 Nov 1996 19:59:24 -0800
From: "Michael A. Mazur"
Subject: TAB: Counting Crows, "Recovering the Satellites"
Tab: "Recovering the Satellites," Counting Crows
Transcribed by Michael A. Mazur (mmazur@wpi.edu)
All guitars are tuned down 1/2 step (Eb Ab Db Gb Bb Eb)
Intro: guitar 1, slight distortion
[A] [G] [D] 
 
 -------------------------- --------------------------
 -----2--x----------------- -----3-----3-----3--3-----
 -----2--x--2-----0-------- --0--0--x--2--2--2--2--2--
 --2--2--x--2--2--2--2----- --0--0--x--4--4--4--4--4--
 --0--0-----0--0--0--0--0-- --------------------------
 -------------------------- -------------------------- 

[A] [D]  
 
 -------------------------- --------------
 -----2--x----------------- --3--------3--
 -----2--x--2-----0-------- --2--------2--
 --2--2--x--2--2--2--2----- --4--------4--
 --0--0-----0--0--0--0--0-- --------------
 -------------------------- -------------- 

Verse: guitar 1 plays the A D progression with the same
rhythmic feel as in the intro (without the G)
[A]Gonna get back to [D]basics
Guess I'll start it up again
I'm fallin' from the ceiling
* re gonna come down
Outro:
Guitar 1 repeats A D, Guitar 2 plays this:
 
 --10h12--10--9---------- -------------7/9--9--9h10--
 ----------------12--10-- --10/12--12----------------
 ------------------------ ---------------------------
 ------------------------ ---------------------------
 ------------------------ ---------------------------
 ------------------------ ---------------------------
 --10h12--10--9---------- ---------------------- --9--9h10--10p9--
 ----------------12--10-- --7b(9)--7--5--3h5/7-- -----------------
 ------------------------ ---------------------- -----------------
 ------------------------ ---------------------- -----------------
 ------------------------ ---------------------- -----------------
 ------------------------ ---------------------- -----------------
 ---------------------------- --9------9------9h10--
 ---------------------------- -----10-----10--------
 --6--7--7h9--4--4b(6)r4--2-- ----------------------
 ---------------------------- ----------------------
 ---------------------------- ----------------------
 ---------------------------- ----------------------
 --10p9--9--9h10--10--10p9----- --------------------------
 ---------------------------9-- --------------------------
 ------------------------------ --------------------------
 ------------------------------ ---------6b(7)--(7)r6-----
 ------------------------------ -----------------------7--
 ------------------------------ --4b(5)-------------------
 --9--10--10h12--12--10--12b(14)r12-- --12--12--12p10\9--
 ------------------------------------ -------------------
 ------------------------------------ -------------------
 ------------------------------------ -------------------
 ------------------------------------ -------------------
 ------------------------------------ -------------------
 --9h10--10--10h12--12--10h12--12b(14)r12--
 ------------------------------------------
 ------------------------------------------
 ------------------------------------------
 ------------------------------------------
 ------------------------------------------
 --12--12--12h14--14~~~--12h14--14~~~--14~~~p12--
 ------------------------------------------------
 ------------------------------------------------
 ------------------------------------------------
 ------------------------------------------------
 ------------------------------------------------
 ---------19------17------14--
 --19/20------19------15------
 -----------------------------
 -----------------------------
 -----------------------------
 -----------------------------
 --14h17--17p15p14--14h17--17p15p14--15h17--17--
 -----------------------------------------------
 -----------------------------------------------
 -----------------------------------------------
 -----------------------------------------------
 -----------------------------------------------
 --17b(19)--17--17\------- --21--19--17--17--17h19/21--15--
 ------------------------- --------------------------------
 ------------------------- --------------------------------
 ------------------------- --------------------------------
 ------------------------- --------------------------------
 ------------------4b(5)-- -------------------------------- 


Important: The song above is NOT stored on the Chordie server. The original song is hosted at tabfu.thudspace.net. Chordie works as a search engine and provides on-the-fly formatting. Chordie does not index songs against artists'/composers' will. To remove this song please click here.

Text color:
Chord color:
Chord grids: 
Font size:    
Page size: 

A D G
Rate #1 of 6 versions

Login - add to songbook

SHARE PAGE  




You need to log in to post comments