Guitar Tabs, Chords and Lyrics
Major upgrade!! After one year development the new version of Chordie is now online! Please give feedback.


Four Seasons in One Day  Crowded House

Four Seasons in One Day - Crowded House
~~~~~~~~~~~~~~~~~~~~~~~
(N. Finn/T. Finn)
INTRO: Em D/F#* G Am+2*
[Em]Four seasons [D/F#]in one day[G]
[Am]Lying in the depths of your imagination
[Em]Worlds above and [D/F#]worlds bel[G]ow
The [Am]sun shines on the black clouds
Hanging over the do[C]main
[Bm]Even when you're feeling [Am]warm
The [Bm]temperature could drop a[C]way
Like [D]four seasons in one [G]day
[Em]Smiling as the [D/F#]shit comes [G]down
[Am]You can tell a man from what he has to say
[Em]Everything gets [D/F#]turned a[G]round
And [Am]I will risk my neck again
[Bm]You can take me where you [C]will
[Bm]Up the creek and through the [Am]mill
Like [Bm]all the things you [C]can't explain
[D]Four seasons in one [G]day
CHORUS:
[C]Blood dries [G]up
Like [D]rain, like [Em]rain
[C]Fills my [G]cup
[D]Like four seasons in one [Em]day
SOLO: Actually played on a harpsichord.
Arranged for 4 guitars (3 picking, 1 strumming chords)...
N.C. Em D/F# G Am
 
 e-0-2-3-0-- -2-3-5-2-- -3---10--- -7-------- -8-7-5-3-- -2-3-2-7-- ---5-3--2-
 B---------- ---------- ---------- ---------- ---------- ---------- ----------
 G---------- ---------- ---------- ---------- ---------- ---------- ----------
 D---------- ---------- ---------- ---------- ---------- ---------- ----------
 A---------- ---------- ---------- ---------- ---------- ---------- ----------
 E---------- ---------- ---------- ---------- ---------- ---------- ---------- 

: : : : : : : :
 
 e---------- ---------- ---------- ---------- ---------- ---------- ----------
 B---------- ---------- ---------- ---------- ---3---0-- ---0-1---- ----------
 G---------- ---------- -----0---- ---0-2---- -0-------- -2-------- ----------
 D---------- ---------- -2-4---2-- -4-----4-- ---------- ---------- ----------
 A---------- ---------- ---------- ---------- ---------- ---------- ----------
 E---------- ---------- ---------- ---------- ---------- ---------- ---------- 

[Cmaj7] [B7] [Em] [D/F#] [G] [Am] 
 
 e-0-------- -2---0---- -0-------- ---------- ---------- ----------
 B---------- -------4-- -------3p0 -3-----0-- ---------- -1--------
 G---------- ---------- ---------- ---------- -------2h4 ----------
 D---------- ---------- ---------- ---------- ---------- ----------
 A---------- ---------- ---------- ---------- ---------- ----------
 E---------- ---------- ---------- ---------- ---------- ---------- 

: : : : : : :
 
 e---------- ---------- ---------- ---------- ---------- ----------
 B-0-------- ---------- ---------- ---------- ---------- ----------
 G---2-0---- -2-0---2-- -0-----0-- -------0-- ---------- -2--------
 D---------- -----4---- ---4-2---- -4-------- ---------- ----------
 A---------- ---------- ---------- ---------- ---------- ----------
 E---------- ---------- ---------- ---------- ---------- ---------- 

: : : : : : :
 
 e---------- ---------- ---------- ---------- ---------- ----------
 B---------- ---------- ---------- ---------- ---------- ----------
 G---------- ---------- ---------- ---------- ---------- ----------
 D---0-2---- -1-------- ---------- ---0------ ---------- ----------
 A-3-----3-- ---3-2-0-- ---------- ---------- ---------- -0--------
 E---------- ---------- -0-2-3-0-- -2-----3-- ---------- ---------- 

"Doesn't pay to make
predictions..."
Arranged for solo guitar...
 
 BVII - - - - - - - - - - - - - - - - - - - - - - - - - - - - - -
 e---------- ---------- -----10--- -7-------- --8-7------ -------7-- ----------
 B---7-8---- -7-8-10-7- -8-------- ---------- ------10-8- -7h8-7---- ---10\8-7-
 G-9-----9-- ---------- ---------- ---------- ----7------ ---------- ----------
 D---------- ---------- ---------- ------7--- ---------9- -7h9-10--- ----------
 A---------- ---------- -7-9-10p7- -9-10---9- -10-------- ---------- ----------
 E---------- ---------- ---------- ---------- ----------- ---------- ----------
 e-(-0------- -2---0---- -(-0-------- ---------- ---------- ----
 B-)-0------- -0-----4-- -)-0-----3p0 -3------0- -----0---- -1-- ...continue
 G-(-0-2-0--- -2---0---- -(-0-----0-- -2------0- -----0-2h4 -2-- to strum Am
 D-)---0-2--- -1-----4-- -)---4-2---- ---0----0- -----0---- -2-- "It doesn't
 A-(-3-----3- ---3-2-0-- -(---------- ---------- ---------- -0-- pay to make
 E----------- ---------- -)-0-2-3-0-- -2------3- ---3------ ---- predictions..."

[Am]It doesn't pay to make predictions
[Em]Sleeping on an [D/F#]unmade [G]bed
[Am]Finding out wherever there is comfort
There is [C]pain
[Bm]Only one step a[C]way
Like [D]four seasons in one [G]day
CHORUS
* UNUSUAL CHORDS
D/F# 200232
Am+2 077557
(Transcription by John Kean)

Important: The song above is NOT stored on the Chordie server. The original song is hosted at tabfu.thudspace.net. Chordie works as a search engine and provides on-the-fly formatting. Chordie does not index songs against artists'/composers' will. To remove this song please click here.

Text color:
Chord color:
Chord grids: 
Font size:    
Page size: 

Am B7 Bm C Cmaj7 D D/F# Em G
Rate #7 of 11 versions

Login - add to songbook

SHARE PAGE  




You need to log in to post comments