Guitar Tabs, Chords and Lyrics
Major upgrade!! After one year development the new version of Chordie is now online! Please give feedback.


Jumping Someone Else's Train  The Cure

JUMPING SOMEONE ELSE'S TRAIN - The Cure
=======================================
Intro:
Guitar 1 (chords): F#m A D F#m A D F#m A D C#m
Guitar 2 (tab):
 
 ------------------5---------------9--
 -2----------------5-2-------------9--
 ---4-2------------7---4-2---------9--
 -------4-2-0------7-------4-2-0---11-
 -------------4----5---------------11-
 ---------------2----------------9-9--

[Bm] Don't say what you [C#m]mean you might spoil your [F#m]face
If you walk in a [A]crowd you won't leave any [D]trace
It's always the [C#m]same
(Intro tab)
You're jumping someone else's train
[Bm] It wont take you [C#m]long to learn the new [F#m]smile
You have to a[A]dapt or you'll be out of [D]style
It's always the [C#m]same
You're jumping someone e[F#m]lse'[A]s t[D]rain[F#m] [A] [D] [F#m] [A] [D] [C#m]
[D] If you pick [E]up on it quick [Fm]you can say you were [F#m]there
A[D]gain and again and a[E]gai[Fm]n
You're jumping someone [F#m]else'[A]s t[D]rain[F#m] [A] [D] [F#m] [A] [D] [C#m]
[Bm] It's the latest [C#m]wave that you've been craving [F#m]for
The old id[A]ea is getting such a b[D]ore
Now you're [C#m]back in line
Goin' [Bm]not quite as far but in [A]half the time
[G#m]Everyone's happy
And they're [F#m]finally all the [E]same
coz' everyone is jumping everybody's [F#m]else'[A]s t[D]rain[F#m] [A] [D] [F#m] [A] [D] [C#m]
From: oSKaR
I think there is someone interested in Cure TABS
Please let me know which songs are you interested in
Some Riffs from :
the Cure: Jumping Someone else's train
 
 -------- ============================

Intro is (2x)
 
 -2--2-----5--5--
 -2--2--2--7--7-
 -2--2--2--7--7-
 -4--4--2--7--7-
 -4--4--0--5--5-
 -2--2----------

This is the main riff
 
 ------------------5---------------9--
 -2----------------5-2-------------9--
 ---4-2------------7---4-2---------9--
 -------4-2-0------7-------4-2-0---11-
 -------------4----5-------------4-11-
 ---------------2------------------9--

And this is some variation in the middle of the song
 
 ----------------------9---
 -2----------2---------9---
 --4-2---2-4--4-2--2-4-9--
 ------4----------4----11--
 ----------------------11---
 ----------------------9---

The chord progression is Bm C#m F#m A D C#m F#m A D
oSKaR

Important: The song above is NOT stored on the Chordie server. The original song is hosted at tabfu.thudspace.net. Chordie works as a search engine and provides on-the-fly formatting. Chordie does not index songs against artists'/composers' will. To remove this song please click here.

Text color:
Chord color:
Chord grids: 
Font size:    
Page size: 

A Bm C#m D E F#m Fm G#m
Rate #3 of 5 versions

Login - add to songbook

SHARE PAGE  




You need to log in to post comments