Guitar Tabs, Chords and Lyrics
Major upgrade!! After one year development the new version of Chordie is now online! Please give feedback.


Riders of Depression  De Skrigende Halse

From koch@hotmail.com Sun May 4 10:03:24 1997
Date: Wed, 26 Mar 1997 04:26:23 -0800 (PST)
From: Christian Koch
To: guitar@nevada.edu
Subject: TAB: Riders of Depression by De skrigende Halse
Riders of Depression - De Skrigende Halse
Tabbed af:Christian Koch 12.03.97
koch@hotmail.com
Main riff:
[C#5] [G#5] [A5] [G5] [F#5]  
 
 e ----------------------------------
 B ----------------------------------
 G --6-6-6-6-6-----------------------
 D --6-6-6-6-6--6--7-7-7-7-7--6--4---
 A --4-4-4-4-4--6--7-7-7-7-7--6--4---
 E -------------4--5-5-5-5-5--4--2--- 

Riff II:
p.m.
 
 ------------- 

[C#5]  
 
 e -----------------------------------
 B -----------------------------------
 G --6-6-6-6-6-6-6-6------------------
 D --6-6-6-6-6-6-6-6--7-7-7-7-7-7-7-7-
 A --4-4-4-4-4-4-4-4--7-7-7-7-7-7-7-7-
 E -------------------5-5-5-5-5-5-5-5- 

Interlude riff:
[1] [2] [3] [4] [1] [2] [3] [4] [1] [2] [3] [4] [1] [2] [3] [4]  
[E5] [F#5] [G#5] [G5]  
 
 e ---------------------------------
 B ---------------------------------
 G ---------------------------------
 D -2-------4-------6-------5-------
 A -2-------4-------6-------5-------
 E -0-------2-------4-------3------- 

Interlude riff (lead):
[1] [2] [3] [4] [1] [2] [3] [4] [1] [2] [3] [4] [1] [2] [3] [4]  
[E5] [F#5] [G#5] [G5]  
 
 e ---------------------------------
 B ---------------------------------
 G ---------------------------------
 D -----6-------7-------9-------8---
 A -7-9-----9-11----11-13---12-14---
 E --------------------------------- 

Lead riff:
 
 e ------------------------------------------
 B ------------------------------------------
 G --18-18-18-18-18--------------------------
 D -----------------18-19-19-19-19-19-18-16--
 A ------------------------------------------
 E ------------------------------------------ 

Intro : main riff x 4
Vers : main riff (palm muted)
We're the riders of depression
The riders of fear
Why don't you join us here?....the night is cold
my blood is warm, but in my head there's ????
Under the stone.. (main riff (clean) med lead riff x 4)
We're the dreamers of destruction
The dreamers of fate
Our song is full of hate
We share the sound
The forgotten fear (med riff II )
Our scream ain't foul
The sacrifice.. (main riff (clean) med lead riff x 4)
Alone in my room (interlude riff + interlude lead riff)
The riders of Doom
Looking out of my window
And what did see?
Fighting attack on destiny
DEPRESSION!!!!
We're the riders of depression!!
DEPRESSION!!!!
We're the riders of depression!!
DEPRESSION!!!!
 
 ---------------------------------------------------------

Get Your *Web-Based* Free Email at http://www.hotmail.com
 
 ---------------------------------------------------------


Important: The song above is NOT stored on the Chordie server. The original song is hosted at tabfu.thudspace.net. Chordie works as a search engine and provides on-the-fly formatting. Chordie does not index songs against artists'/composers' will. To remove this song please click here.

Text color:
Chord color:
Chord grids: 
Font size:    
Page size: 

A5 C#5 E5 F#5 G#5 G5
Rate #1 of 2 versions

Login - add to songbook

SHARE PAGE  




You need to log in to post comments