Guitar Tabs, Chords and Lyrics
Major upgrade!! After one year development the new version of Chordie is now online! Please give feedback.


Holiday in Cambodia  Dead Kennedys

Holiday in Cambodia by Dead Kennedys
intro
 
 E-------------------------------------------------------------------------
 B-------------------------------------------------------------------------
 G-------------------------------------------------------------------------
 D--------------------------7-7-7------------------------------------------
 A----------7-6---------9-8---------7-6---------9-8------------------------
 E--8-8-8-5-----8-8-8-5-----------5-----8-8-8-5----------------------------
 E------------------------------ ------------------------------------------
 B------------------------------ ------------------------------------------
 G------------------------------ ------------------------------------------
 D------------------------------ ------------------------------------------
 A------------------------------ ------------------------------------------
 E------8-8-8-7---6---5-5-5----- ----------8-8-8---7------6-----5-5-5------

so you been to school for a year or two
riff1
So you been to school for a year or two
And you know you've seen it all
In daddy's car thinkin' you'll go far
Back east your type don't crawl
G D < THE LEAD GOES HERE,... PERHAPS ANOTHER DAY >
It's a [A]holiday in [C]Cam[D]bodia
[C]Where [A]you'll do what [C]your [D]told
[C]A [A]holiday in [C]Cam[D]bodia
[C]Where the [A]slums got so [G]much [F]soul [C]Pol [A]Pot
[A] [B] [C] [D] [F] [G] 
[EADGBE] [EADGBE] [EADGBE] [EADGBE] [EADGBE] [EADGBE] 
5th 111111 7th 111111 3rd 111111 5th 111111 1st 111111 3rd 111111
[2] [2] [2] [2] 
[34] [34] [333] [333] [34] [34] 

Important: The song above is NOT stored on the Chordie server. The original song is hosted at tabfu.thudspace.net. Chordie works as a search engine and provides on-the-fly formatting. Chordie does not index songs against artists'/composers' will. To remove this song please click here.

Text color:
Chord color:
Chord grids: 
Font size:    
Page size: 

A B C D F G
Rate #4 of 8 versions

Login - add to songbook

SHARE PAGE  




You need to log in to post comments