Guitar Tabs, Chords and Lyrics
Major upgrade!! After one year development the new version of Chordie is now online! Please give feedback.


The Love Thieves  Depeche Mode

you can throw away all the +7 or 6,
but some piece of DM spirit will be lost ;-)
[F#m] [F#m]  
 
 E-------------------- --------2-----------
 B------2-5----------- ------2-----5---2---
 G----2--------------- --------------------
 D--4----------------- ----4---------------
 A--------4----------- --------4-----------
 E--2----------------- --2-----------------

[D] [C#m]  
 
 E--------5----------- --------4-----------
 B------3------------- ------2-----5---2---
 G----2--------------- ----2---------------
 D--0-----0----------- --0-----------------
 A-------------------- --------4-----------
 E-------------------- --------------------

Oh the [D]tears that you weep
For the [Dm+7]poor tortured souls
Who [F#m]fall at your feet
With their [Dm7]love begging bowls
All the [F#m]clerks and the tailors
The [E]sharks and the sailors
All [D]good at their trades
But they'll [Bm7]always be failures
[D]Alms for the poor
For the [Dm+7]wretched disciples
And the [F#m]love that they swore
With their [Dm7]hearts on the Bible
[F#m]Beseeching the honour
To [E]sit at your table
And [D]feast on your holiness
As [Bm7]long as they're able
[Dm+7]Love needs its martyrs
[F#m6]Needs its sacrifices
[Dm]They live for your beauty
[Am+7]And pay for their vices
[Dm+7]Love will be the death of
[F#m6]My lonely soul brothers
[Dm]But their spirit shall live on in
[Am+7]The hearts of all lovers
[D]You're holding court
With your [Dm+7]lips and your smile
Your [F#m]body's a halo
Their [Dm7]minds are on trial
Sure as [F#m]Adam is Eve
Sure as [E]Jonah turned whaler
[D]They're crooked love thieves
And [Bm7]you are their jailor
well, just look above...
Love needs its martyrs
Needs its sacrifices
They live for your beauty
And pay for their vices
Love will be the death of
My lonely soul brothers
But their spirit shall live on in
The hearts of all lovers
if here is something wrong, please, e-mail me
or e-mail me for no special reason... :-)
 
 ---------------------------------------

From: Max Stepanov, Russia, St.Petersburg
e-mail: profi@dux.ru
 
 ---------------------------------------

05 June 1997

Important: The song above is NOT stored on the Chordie server. The original song is hosted at tabfu.thudspace.net. Chordie works as a search engine and provides on-the-fly formatting. Chordie does not index songs against artists'/composers' will. To remove this song please click here.

Text color:
Chord color:
Chord grids: 
Font size:    
Page size: 

Am+7 Bm7 C#m D Dm Dm+7 Dm7 E F#m F#m6
Rate #3 of 9 versions

Login - add to songbook

SHARE PAGE  



You need to log in to post comments