Guitar Tabs, Chords and Lyrics
Major upgrade!! After one year development the new version of Chordie is now online! Please give feedback.


Nothing Left to Say  Dokken

Date: Sun, 13 Apr 1997 14:35:51 -0700 (PDT)
From: Naikel
Subject: TAB: Nothing Left to Say from Dokken
Nothing Left to Say - Dokken
from the Album "Dysfunctional"
Transccribed by: Naikel Aparicio - naikel@usa.net
h - hammer-on
p - pull-off
/ - slide
^ - half bend
^^ - full bend
~ - vibrato
x - strike strings muted lightly w/left hand
 
 e:--------------0-----------------0----------------
 B:--------3--------3-----3-----------------0-------
 G:-----2-----2--------2--------4--------3-----3----
 D:-/4-----------------------2--------4-----------4-
 A:-------------------------------------------------
 E:-------------------------------------------------
 e:--------------0-----------------0----------------
 B:--------3--------3-----3-----------------0-------
 G:-----2-----2--------2--------4--------3-----3----
 D:-/4-----------------------2--------4-----------4-
 A:-------------------------------------------------
 E:-------------------------------------------------
 e:--------------0-----------------0----------------
 B:--------3--------3-----3-----------------0-------
 G:-----2-----2--------2--------4--------3-----3----
 D:-/4-----------------------2--------4-----------4-
 A:-------------------------------------------------
 E:-------------------------------------------------
 e:--------------0-----------------0--0-------------
 B:--------3--------3-----3-----------0-------------
 G:-----2-----2--------2--------4-----3-------------
 D:-/4-----------------------2--------4-------------
 A:-------------------------------------------------
 E:------------------------------------------------- 

Verse
There were days where we were closer....
 
 e:-------2--------2--------------3--------3--------------2--------2--------
 B:----3--------3-----3--------3--------3-----3--------3--------3-----3-----
 G:-4--------4-----------4--4--------4-----------4--4--------4-----------4--
 D:-------------------------------------------------------------------------
 A:-------------------------------------------------------------------------
 E:-------------------------------------------------------------------------
 e:-------0--------0--------
 B:----3--------2-----2-----
 G:-2--------2-----------2--
 D:-------------------------
 A:-------------------------
 E:------------------------- 

Bridge 1
Lost Feeling so lost No more tears can we
 
 e:-------------------------------------------------------------------------
 B:-------------3-----------------------3-----------------------3-----------
 G:-------0--------0-----0--------0--------0-----0--------0--------0-----0--
 D:----0-----0--------0--------2-----2--------2--------0-----0--------0-----
 A:-------------------------------------------------------------------------
 E:-3-----------------------0-----------------------3----------------------- 

shed and...
 
 e:------------------------
 B:-------3-----2----------
 G:----------------2-----2-
 D:----2-----2--------2----
 A:-0----------------------
 E:------------------------ 

Note that Lynch uses:
eBGDAE
020100
for the second chord in the Bridge 1, BUT it sounds better if you use:
eBGDAE
024100
Chorus
Guess there's nothing left to say....
 
 e:-------------------------------------------------------------------------
 B:-------------3-----------------------3-----------------------3-----------
 G:-------0--------0-----0--------0--------0-----0--------2--------2-----2--
 D:----0-----0--------0--------2-----2--------2--------0-----0--------0-----
 A:-------------------------------------------------2-----------------------
 E:-3-----------------------0-----------------------------------------------
 e:------------------------
 B:-------------3----------
 G:-------1--------1-----1-
 D:----0-----0--------0----
 A:-2----------------------
 E:------------------------
 e:-------------------------------------------------------------------------
 B:-------------3-----------------------3-----------------------3-----------
 G:-------0--------0-----0--------0--------0-----0--------2--------2-----2--
 D:----0-----0--------0--------2-----2--------2--------0-----0--------0-----
 A:-------------------------------------------------2-----------------------
 E:-3-----------------------0-----------------------------------------------
 e:------------------------
 B:-------------3----------
 G:-------1--------1-----1-
 D:----0-----0--------0----
 A:-2----------------------
 E:------------------------ 

When there's nothing left
 
 e:-------------------------------------------------
 B:-------------3-----------------3-----2-----------
 G:-------0--------0-----0-----------------2-----2--
 D:----0-----0--------0--------2-----2--------2-----
 A:-------------------------0-----------------------
 E:-3----------------------------------------------- 

Bridge 2:
 
 e:-2--2------0--0------2--2------0--0-----
 B:-3--3------0--0------3--3------0--0-----
 G:-4--4------2--1------4--4------2--1-----
 D:-4--4------2--2------4--4------2--2-----
 A:-2--2------2--2------2--2------2--2-----
 E:-----------0--0----------------0--0----- 

Bridge 3:
(For the
way it used to be Now is time to set you
 
 e:-------------------------------------------------------------------------
 B:-------------3-----------------------3-----------------------3-----------
 G:-------0--------0-----0--------0--------0-----0--------0--------0-----0--
 D:----0-----0--------0--------2-----2--------2--------0-----0--------0-----
 A:-------------------------------------------------------------------------
 E:-3-----------------------0-----------------------3----------------------- 

free
 
 e:------------------------
 B:-3-----2----------------
 G:-2-----2----------------
 D:-2-----2----------------
 A:-0-----0----------------
 E:------------------------ 

SOLO:
[Bm] [A] [G] [Em] [G] [A] [Bm] [A]  
 
 e:--------------------------------------------------7-9-9^^---7------------
 B:-----------------5-7-8--7-8-7-5-5-7-8/10-13-13~~-------------------------
 G:-2-4-/6-6h7~~----7-7-7----------------------------------------11-9-7-----
 D:---------------------------------------------------------------------9-7-
 A:-------------------------------------------------------------------------
 E:------------------------------------------------------------------------- 

[G] [Em] [G] [A] [Bm] [A]  
 
 e:------------------------------------------------------------10--/12-12-
 B:------------------------------------------------------------10--/12-12-
 G:---------7-9-11------9/11-9~~~---7--6h7p6------------------------------
 D:---9---9-----------9----------------------7--7/9--7--/16---------------
 A:-9---9-----------------------------------------------------------------
 E:----------------------------------------------------------------------- 

[G] [Em] [G] [A] [Bm] [A] [G]  
 
 e:-11-10/12-10---7-9-9h10p9-9~--5/7-----------------------------------------
 B:-10-10/12-10----------------------5----7h8p7p5--7~~----7/8---8/10---10/12-
 G:-----------------------------------------------------6-----7------9-------
 D:--------------------------------------------------------------------------
 A:--------------------------------------------------------------------------
 E:-------------------------------------------------------------------------- 

[Em] [A] [Bm]  
 
 e:-9-10-14---17-14---10-14-10---------------------------------7h10p10------
 B:----------------------------14-12-10-12-----------------------------10-7-
 G:----------------------------------------11-9-7-------7-9/11--------------
 D:-----------------------------------------------9-7-----------------------
 A:---------------------------------------------------9---------------------
 E:-------------------------------------------------------------------------
 e:----------------------------
 B:-7-10-----------------------
 G:------9-7-------9/12~~~~~---
 D:----------9-7---------------
 A:--------------9-------------
 E:---------------------------- 

Ending
 
 e:--------------0--------------0-----0----------
 B:--------3--------3-----3-----0-----0----------
 G:-----2-----2--------2--------4-----3----------
 D:-/4--------------------------2-----4----------
 A:----------------------------------------------
 E:---------------------------------------------- 

Here we have how the parts must be played (order of the song)
Intro
Verse
Bridge 1
Chorus
Intro (just half)
Verse
Bridge 1
Bridge 2
Chorus
Bridge 2
Bridge 2
Bridge 2
Bridge 3
Solo
Chorus
Ending
Any comments to this correction of "Nothing Left to Say", drop a line to
naikel@usa.net
Naikel

Important: The song above is NOT stored on the Chordie server. The original song is hosted at tabfu.thudspace.net. Chordie works as a search engine and provides on-the-fly formatting. Chordie does not index songs against artists'/composers' will. To remove this song please click here.

Text color:
Chord color:
Chord grids: 
Font size:    
Page size: 

A Bm Em G
Rate #5 of 6 versions

Login - add to songbook

SHARE PAGE  




You need to log in to post comments