Guitar Tabs, Chords and Lyrics
Major upgrade!! After one year development the new version of Chordie is now online! Please give feedback.


Watermark   Enya

 
 ------------- ---------0-4- --5-------7-5- -4----------- -5-------7-5-
 -------2----- -------2----- ------0------- -----5------- -----0-------
 -----4---4--- -----4------- *-------6----- ---------6--- -------6-----
 ---2-------3- ---2--------- *---7--------- ---6---6---6- ---7---------
 -0----------- -0----------- --0----------- -4----------- -0-----------
 ------------- ------------- -------------- ------------- ------------- 

 


 


 .................


 1.


 , . , . , . , . , . , . , . , . , . , . , . , . , . , . , .


 

 
 -4----------- -2-------2--- -2----------- -0----------- ---------0-5--
 -----5------- -----3/5---3- -----3---0--- -------2----- -2-----2------
 ---------6--- ---2--------- ---0---0---0- -----4---4--- -----4-------*
 ---6---6---6- -0----------- ------------- ---2-------2- ---2---------*
 -4----------- ------------- ------------- -0----------- -0------------
 ------------- ------------- -3----------- ------------- -------------- 

 


 


 ...............


 2.


 , . , . , . , . , . , . , . , . , . , . , . , . , . , . , .


 

 
 ------------- -5-----4-5-7- -4----------- -5---3---2--- -0-----------
 -2-----2----- -----7------- -------4-5--- -------0----- -------2-----
 -----4---4--- ---6--------- -----6-----6- ---0-------0- -----4---4---
 ---2-------2- -4----------- ---6--------- ------------- ---2-------2-
 -0----------- ------------- -4----------- ------------- -0-----------
 ------------- ------------- ------------- -3----------- ------------- 

 


 


 


 , . , . , . , . , . , . , . , . , . , . , . , . , . , . , .


 

 
 -5-----4-5-7- -4----------- -5---3---2--- -3---1---0--- -0---------0-
 -----7------- -------4-5--- -------0----- -------1----- ---------0---
 ---6--------- -----6-----6- ---0-------0- ---2-------2- -------1-----
 -4----------- ---6--------- ------------- ------------- -----2-------
 ------------- -4----------- ------------- ------------- ---2---------
 ------------- ------------- -3----------- -1----------- -0----------- 

 


 


 


 , . , . , . , . , . , . , . , . , . , . , . , . , . , . , .


 


 

 
 -4/7-H12------4- --5-------7-5- -4---------5- -5-------7-5- -4-----------
 --------H12-5--- ------0------- -----5------- -----0------- -----5-------
 ---------------- *-------6----- ---------6--- -------6----- ---------6---
 ---------------- *---7--------- ---6---6----- ---7--------- ---6---6---6-
 ---------------- --0----------- -4----------- -0----------- -4-----------
 ---------------- -------------- ------------- ------------- ------------- 

 


 


 .................


 .....................


 1. 2.


 , . , . , . , . , . , . , . , . , . , . , . , . , . , . , . ,


 .


 

 
 -2-------2--- -2----------- -0----------- ---------0-5-- -------------- -- 

 


 [---]  

 
 -----3/5---3- -----3---0--- -------2----- -2-----2------ --2-----2----- -- 

 


 [---]  

 
 ---2--------- ---0---0---0- -----4---4--- -----4-------* ------4---4--- -- 

 


 [---]  

 
 -0----------- ------------- ---2-------2- ---2---------* ----2-------2- -- 

 


 [---]  

 
 ------------- ------------- -0----------- -0------------ --0----------- -0 

 


 [---]  

 
 ------------- -3-------0--- ------------- -------------- ----------0--- -5 


Important: The song above is NOT stored on the Chordie server. The original song is hosted at tabfu.thudspace.net. Chordie works as a search engine and provides on-the-fly formatting. Chordie does not index songs against artists'/composers' will. To remove this song please click here.

This song is displayed as text-only. Transposing and tuning is only available for chordpro-songs.
Rate #1 of 1 versions

Jango Player

Login - add to songbook

SHARE PAGE  




You need to log in to post comments