Guitar Tabs, Chords and Lyrics
Major upgrade!! After one year development the new version of Chordie is now online! Please give feedback.


Heartspark Dollarsign  Everclear

Date: Mon, 9 Mar 1998 22:20:36 EST
!From: Cmickols
Subject: TAB: Heartspark Dollarsign by Everclear
Heartspark Dollarsign
By Everclear
Off the CD "Sparkle and Fade"
Tabbed by Chris Mickols (cmickols@hotmail.com)
Guitar:
Intro:
 
 e -----------------2-------------------2---------------------
 B -----5------3----3-------5------3------3---------5-----3---
 G -------0----0----0---------0----0--------0---------0---0---
 D ---0--------0----------0--------0--------------0-------0---
 A -----------------------------------------------------------
 E -5-------3-----------5-------3---------------5-------3----- 

Riff 1:
[G] [C]  
 
 e -------------3--3--3--3--------------0--0--0--0--------------
 B -------------0--0--0--0--------------1--1--1--1--------------
 G -2--4--2--0--0--0--0--0--2--4--2--0--0--0--0--0--2--4--2--0--
 D -0--0--0--0--0--0--0--0--0--0--0--0--2--2--2--2--0--0--0--0--
 A -------------2--2--2--2--------------3--3--3--3--------------
 E -------------3--3--3--3--------------0--0--0--0--------------

[G] [C]  
 
 e -3--3--3--3--------------0--0--0--0--------------
 B -0--0--0--0--------------1--1--1--1--------------
 G -0--0--0--0--2--4--2--0--0--0--0--0--2--4--2--0--
 D -0--0--0--0--0--0--0--0--2--2--2--2--0--0--0--0--
 A -2--2--2--2--------------3--3--3--3--------------
 E -3--3--3--3--------------0--0--0--0-------------- 

Riff 2:
[A] [C] [G] [C]  
 
 e -0--------0-------3--3--3--3--------------0--0--0--0--------------
 B -3--------1-------0--0--0--0--------------1--1--1--1--------------
 G -3--------0-------0--0--0--0--2--4--2--0--0--0--0--0--2--4--2--0--
 D -3--------2-------0--0--0--0--0--0--0--0--2--2--2--2--0--0--0--0--
 A -0--------3-------2--2--2--2--------------3--3--3--3--------------
 E ----------0-------3--3--3--3--------------0--0--0--0-------------- 

Riff 3:
 
 e -----------------------------------------------------
 B -----------------------------------------------------
 G -2--4--2--0----------2--4--2--0----------2--4--2--0--
 D -0--0--0--0----------0--0--0--0----------0--0--0--0--
 A -----------------------------------------------------
 E ----------------------------------------------------- 

Riff 4:
[A] [E] [A] [E] [G] [C]  
 
 e -0--0---0--0---0--0---0--0---3--3--3--3---0--0--0--0--
 B -3--3---0--0---3--3---0--0---0--0--0--0---1--1--1--1--
 G -3--3---1--1---3--3---1--1---0--0--0--0---0--0--0--0--
 D -3--3---2--2---3--3---2--2---0--0--0--0---2--2--2--2--
 A -0--0---2--2---0--0---2--2---2--2--2--2---3--3--3--3--
 E --------0--0----------0--0---3--3--3--3---0--0--0--0--

[G] [C]  
 
 -3--3--3--3---0--0--0--0--
 -0--0--0--0---1--1--1--1--
 -0--0--0--0---0--0--0--0--
 -0--0--0--0---2--2--2--2--
 -2--2--2--2---3--3--3--3--
 -3--3--3--3---0--0--0--0-- 

Solo:
 
 e ---------------------------------------------12-15--------
 B -15-17)-15--12-15-12-15-12-\-\-\-/-/-/-12-15-------12-15--
 G ----------------------------------------------------------
 D ----------------------------------------------------------
 A ----------------------------------------------------------
 E ----------------------------------------------------------
 -----------------12-15--------------------
 ----12-----12-15-------12-15-----12-------
 -12----11---------------------12----11----
 ------------------------------------------
 ------------------------------------------
 ------------------------------------------
 ------------------------------------------------------------------
 -12-12-12-12-11-11-11-11-12-12-12-12-11-11-11-11--------------12--
 -12-12-12-12-12-12-12-12-12-12-12-12-12-12-12-12--14-16-14-12-12--
 ------------------------------------------------------------------
 ------------------------------------------------------------------
 ------------------------------------------------------------------ 

Bass:
Riff 1:
 
 G -------------------------------------
 D -------------------------------------
 A ----------5-5-5-5--3-3-3-3--5-5-5-5--
 E -3-3-3-3----------------------------- 

Riff 2:
 
 G -------------------------------------------------------
 D -------------------------------------------------------
 A ----------3-3-3-3-----------5-5-5-5--3-3-3-3--5-5-5-5--
 E -5-5-5-5----------3-3-3-3------------------------------ 

Riff 3:
 
 e ------------------------------------------------------
 B ------------------------------------------------------
 G ------------------------------------------------------
 D ------------------------------------------------------
 A ------------------------------3-3-3-3---------3-3-3-3-
 E -5-5---0-0--5-5--0-0--3-3-3-3---------3-3-3-3--------- 

Guitar Intro, Riff 1 Intro
Bass None, Riff 1
Guitar Let ring Time stops when the whispers blare
Bass Riff 1 The voices drop hard, but the eyes still stare
The world resolvs into a death's head grin
Guitar Riff 2 Because I walk with pride with a black girlfriend
Bass Riff 2
Guitar Riff 3 My mom said not to brign her around
Bass Riff 1 Cause she's black my family would put her down
I'll break the white-trash ties that bind
Guitar Riff 2 Trade a love so pure for a hate so blind
Bass Riff 2
Guitar Riff 4 She said, she said
Bass Riff 3 Forget the fact that I don't look like you
She said, she said
You're possessed with a power bigger than the pain
Guitar Solo Solo
Bass Riff 1
Guitar Riff 3 Time stops when we lie so close
Bass Riff 1 In my room where we share what no one knows
From the day that we start
Untill the day that we end
Gutar Riff 2 I know I know I know now
Bass Riff 2 We will never find a place
Where we could just fit in
Guitar Riff 1 Me and my black girlfriend
Bass Riff 1
Guitar Riff 4 She said, she said
Bass Riff 3 Fend for yourself, your alone
She said, she said
Your posessed with a power bigger than the pain
Guitar Riff 1 A power bigger than the pain
Bass Riff 1 A power bigger than the pain
A power bigger than the pain
Heartspark Dollarsign
Heartspark Dollarsign
If you think I am missing parts to this song e-mail them to me:
cmickols@hotmail.com

Important: The song above is NOT stored on the Chordie server. The original song is hosted at tabfu.thudspace.net. Chordie works as a search engine and provides on-the-fly formatting. Chordie does not index songs against artists'/composers' will. To remove this song please click here.

Text color:
Chord color:
Chord grids: 
Font size:    
Page size: 

A C E G
Rate #7 of 9 versions

Login - add to songbook

SHARE PAGE  




You need to log in to post comments