Guitar Tabs, Chords and Lyrics
Major upgrade!! After one year development the new version of Chordie is now online! Please give feedback.


Santa Monica  Everclear

Date: Mon, 11 Dec 1995 19:27:22 -0500
Subject: Tab: Santa Monica by Everclear
Santa Monica
By Everclear
Tabbed by:
Matt Cook
jibra@aol.com
riff #1 intro Riff 2
 
 ---------------------------- ----------------------------------------------
 --- ------------
 ---------------------------- ----------------------------------------------
 --- ------------
 ---------------------------- ----------------------------------------------
 --- ------------
 ---------------------------- ----------------------------------------------
 --- ------------
 ---5--5--5--5--5--5----- ---5--5-----5--5--5--5--5--5--x--x--x--x---------
 --5--5------
 ---3--3--0--0--3--3----- ---3--3-----3--3--0--0--3--3----------------------
 -- --3--3------

I am still living with your
ghost
 
 ----------------------------- -------------------3-- ------------------------
 -------
 ----------------------------- -------------------3-- ------------------------
 -------
 ----------------------------- -------------------4-- ------------------------
 --------
 ----------------------------- -------------------5-- ------------------------
 --------
 5--5--5--5--x--x--x----- ----5--5--5--5--5-- --------------5---5--5--5----
 0--0--3--3---------------- ----3--3--0--0--3-- --------------3---3--3--3----

lonely and dreaming of the west coast
 
 ----------------------------------------------------- ------------------------
 ---------
 ----------------------------------------------------- ------------------------
 ---------
 ----------------------------------------------------- ------------------------
 ---------
 ----------------------------------------------------- ------------------------
 ---------
 5--5--5--5---x--x--x--x------------5--5--5--5--5--5-- --5--5--5--5--5--5--x--x

--x--x-
 
 0--0--3--3-------------------------3--3--0--0--3--3-- --3--3--0--0--3--3------
 ---------

Riff 1 D D E C C
I don't wanna be your downtown
C C A G Riff 1 G
I don't wanna be your stupid game
Riff 2
With my big black boots and an old suit case
I do believe I'll find myself a new place
Riff 1 D D D E C C
I don't wanna be the bad guy
C A G Riff 1
I don't wanna do your sleep-walk dance anymore
I just wanna see some p[D]al[D]m trees[D] [E] [C] [C]
C A G Riff 1 G
Go and try to shake this disease
Chorus:
We can live beside the ocean, leave [C]the[C] fire be[C]hind[D] [G] [G]
S[G]wim[G] out past t[E]he breakers, watc[D]h t[D]he wo[D]rld d[C]ie[G]
And so forth:
Enjoy
E-mail me if you want the solos.
From: Keith18NJ@aol.com
Date: Wed, 23 Aug 1995 21:51:54 -0400
Subject: TAB: "santa monica" by everclear
"Santa Monica" by Everclear
verse
G5 (N.C.) G5 E5 G5
 
 ----------------------------------------
 ----------------------------------------
 ----------------------------------------
 --5--5------5--5--------5--5----x-x-x--
 --5--5------5--5--2--2--5--5----x-x-x-- --3--3------3--3--0--0--3--3----x-x-x--

intro and verse end with this:
[G5] [E5] [G]  
 
 ---------------3--
 ---------------3--
 ---------------0--
 --5--5---------0--
 --5--5--2--2---2--
 --3--3--0--0---3--

this part is played during the verse (you'll know where):
[G5] [D5] [E5] [C5] [C5] 
[D5]  
 
 ------------------------------------------------------------
 ------------------------------------------------------------
 ------------------7--7---9--9---5--5---x-x-x---5--5---7--7-
 --5--5----x-x-x---7--7---9--9---5--5---x-x-x---5--5---7--7-
 --5--5----x-x-x---5--5---7--7---3--3---x-x-x---3--3---5--5-
 --3--3----x-x-x---------------------------------------------

chorus (the part before the lines is only played when the chorus is being
repeated):
[G5] [D5] [C5] [C5] [D5] [G5] 
 
 ------------ --------------------------------------
 ------------ --------------------------------------
 -------7-7-- --5-5--x-x-x--5-5--7-7---------------
 --5-5--7-7-- --5-5--x-x-x--5-5--7-7--5-5--x-x-x--
 --5-5--5-5-- --3-3--x-x-x--3-3--5-5--5-5--x-x-x--
 --3-3------- -------------------------3-3--x-x-x--

[G5] [E5] [D5] [D5] [C5] [G5] 
 
 ------------------------------------------------
 ------------------------------------------------
 -------9-9--7-7--x-x-x--7-7--5-5---------------
 --5-5--9-9--7-7--x-x-x--7-7--5-5--5-5--x-x-x--
 --5-5--7-7--5-5--x-x-x--5-5--3-3--5-5--x-x-x--
 --3-3------------------------------3-3--x-x-x--

i haven't figured out any of the solo-like riffs played, except this which is
played at the end (repeat a few times):
G5 (N.C.)
 
 ---------------
 -----------8b--
 ---------------
 --5--5---------
 --5--5---------
 --3--3---------

b = bend 1/2
-keith
From: PUREPIG@aol.com
Date: Fri, 22 Dec 1995 15:01:59 -0500
Subject: TAB: Santa Monica--Everclear
santa monica
**************
everclear
tabbed: jeremy kerans (silverdrip@aol.com)
this is a little correction to the tab previously posted, though it was
pretty damn good.
Intro:
 
 e--------------------------------------------------
 b--------------------------------------------------
 g--------------------------------------------------
 d--------------------------------------------------
 a----5-5---5-5-5-5-5-5--xxxx--5-5-5-5-5-5--xxxx----
 e----3-3---3-3-0-0-3-3--xxxx--3-3-0-0-3-3--xxxx----
 e------------------3-----
 b------------------3-----
 g------------------4-----
 d------------------5-----
 a-------5-5-5-5----5-----
 e-------3-3-0-0----3----- 

the rest seems right.
questions, comments, corrections
silverdrip@aol.com
From: Jibra@aol.com
Date: Thu, 4 Jan 1996 18:27:17 -0500
Subject: TAB: Santa Monica Solos by Everclear
Santa Monica Solos
By Everclear
Tabbed by Matt Cook (jibra@aol.com)
with the help of Rod Furlott.
Tabbed with Bucket o' Tab
at :45 Hold bend Release
 
 ----------------------------------------------------- --
 ---------------------------------------------------- ---
 -------------1/2---------------------------------- --
 ---------2-~~~---2--2--2--2--2--2--2---2-- -
 ---------------------------------------------------- -
 ll---------------------------------------------------ll-

at 1:47
 
 --l --------7-----7----- -----------------
 -- ----/8-----8-----8-- -----------------
 -- -------------------- -----------------
 -- -------------------- -----------------
 -- -------------------- -----------------
 -- -------------------- -----------------

at 2:08 full
 
 ----------15------15--17-~~~-- -
 -----/17------17------------------ -
 ------------------------------------- -
 ------------------------------------- -
 ------------------------------------- --
 ------------------------------------- -

at 2:19
 
 -12---------------------------------------------------
 --------15p12--------------------------------------
 -----------------14p12------12--14--12---------
 ----------------------------14------------------------
 --------------------------------------------------------
 -------------------------------------------------------

Full End
 
 ----------------------------------------------- ---15\-- --------------------
 ----------------------
 ----------------------------------------------- ---12\-- -----10\------------
 ----------------------
 -14--12--14----12------12--14-~~~-- ---12\-- -----12\------------------------
 -----------
 ---------------14----------------------------- --------- -----12\------------
 -----------------------
 ----------------------------------------------- --------- -------------------
 -----------------------
 ----------------------------------------------- --------- -------------------
 -----------------------

================================================================
== TABLATURE EXPLANATION
==
================================================================
 
 ---------- ----------
 ----5h8--- Hammeron ----(8)--- Ghost Note
 ---------- ----------
 ----5p8--- Pulloff ----------
 ---------- ----------
 ----5/8--- Slide Up -----x---- Dead Note
 ---------- ----------
 ----5\8--- Slide Down ----------
 ---------- ------ Repeat Start & End
 ----5~~~-- Bend *----*
 ---------- *----*
 ---------- ------ 

===

Important: The song above is NOT stored on the Chordie server. The original song is hosted at tabfu.thudspace.net. Chordie works as a search engine and provides on-the-fly formatting. Chordie does not index songs against artists'/composers' will. To remove this song please click here.

Text color:
Chord color:
Chord grids: 
Font size:    
Page size: 

C C5 D D5 E E5 G G5
Rate #4 of 9 versions

Jango Player

Login - add to songbook

SHARE PAGE  




You need to log in to post comments