Guitar Tabs, Chords and Lyrics
Major upgrade!! After one year development the new version of Chordie is now online! Please give feedback.


More Than Words   Extreme

 
 --3---3---3---3- --3-----3-3----- --0-----3------- --0---2---3---3-
 --3---3---3---3- --3-------3---1- --1-------1---1- --1---3---3---3-
 ---------------- ---------------- ---------------- ----------------
 ---------------- ---------------- ---------------- --------0-------
 ------2-------3- ------3-3-3---0- ------0-0-0---3- ----------------
 3--------------- ---------------- ---------------- --------------3- 

 


 ^tap ^tap ^tap ^tap (get the idea?)


 


 

 
 --3---3---3---3- --3-----3-3----- --0-----3------- --0---2---3---3-
 --3---3---3---3- --3-------3---1- --1-------1---1- --1---3-------3-
 ---------------- ---------------- ---------------- ----------------
 ---------------- ---------------- ---------------- ----------------
 ------2-------3- ------3-3-3---0- ------0-0-0---3- --------0-------
 ---------------- ---------------- ---------------- --------------3- 

 


 


 these two lines are what I'm gonna call the "intro line".


 play it once for intro.


 play it again for the first part of verse


 "Sayin 'I love you' is not the words I want to hear from you


 It's not that I want you, not to say but if you only knew"


 on "knew", instead of playing the last eigth note in the intro line, you play


 0- instead of 3-


 [--] [3-]  


 [--] [--]  


 [--] [--]  


 [--]0- [--]3-


 


 the next part of the verse:


 

 
 --0------------- --------3-0----- 2-----2---2---3- --3-------------
 --0---0---0----- --1-----1-1----- 3-----3---3---3- --3---3---3---0-
 ------0---0----- --0------------- ---------------- ------2---2---0-
 ---------------- ---------------- 0-----0---0----- ----------------
 --------------0- --------0-0---0- ---------------- ----------------
 ------0---0----- ---------------- --------------3- --3---2---2---0-
 --0------------- --------3-3----- ------0---2---1- --1---1---1---0-
 --0---0---0---1- --1-----1-1----- ------3---3----- --0---0---0---1-
 ------0---0---0- --0------------- ---------------- ----------------
 ---------------- ---------------- 0-----0--------- ----------------
 ------2---2---0- --0---0-0-0---0- ---------------- ------2---2---3-
 ---------------- ---------------- --------------3- --3-------------
 --------0-0----- ---------------- --3-----3-3---3- --3---3---3-----
 --------1-1---4- --4-----4-4---2- --3-----3-3---3- --3---3---3-----
 --------------0- --0-----0-0---0- ---------------- ----------------
 ---------------- ---------------- ---------------- ------2---------
 ------3-3-3---3- --3-----3-3----- ---------------- --2-------2-----
 ---------------- --------------3- ------3-3-3-2-0- ---------------- 


Important: The song above is NOT stored on the Chordie server. The original song is hosted at tabfu.thudspace.net. Chordie works as a search engine and provides on-the-fly formatting. Chordie does not index songs against artists'/composers' will. To remove this song please click here.

This song is displayed as text-only. Transposing and tuning is only available for chordpro-songs.
Rate #2 of 17 versions

Login - add to songbook

SHARE PAGE  




You need to log in to post comments