Guitar Tabs, Chords and Lyrics
Major upgrade!! After one year development the new version of Chordie is now online! Please give feedback.


Fallin' Down  Goo Goo Dolls

Alright I just raed this message and decided to try to tab this. Please
be understanding, not only is this my first post but it is also my first
written tab. It's not all that hot but I got the gist of it, lyrics are
either wrong or missing anyone wanna fill them in, please do, any
criticism or additions are greatly appreciated. By the way the Goo Goo
Dolls rule! New albums awesome too.
Fallin Down
 
 -----------

by the Goo Goo Dolls
Intro w/ distortion
 
 ------------------------------------------------------------------------
 ------------------------------------------------------------------------
 --6---9---4----4---6---9-9---4--2---------------------------------------
 --6---9---4----4---6---9-9---4--2---------------------------------------
 --4---7---2----2---4---7-7---2--0---------------------------------------
 ------------------------------------------------------------------------
 ------------------------------------------------------------------------
 ------------------------------------------------------------------------
 --6---9---4---6---2-----2-2-2---4--4------------------------------------
 --6---9---4---6---2-----2-2-2---4--4------------------------------------
 --4---7---2---4---0-----0-0-0---2--2------------------------------------
 ------------------------------------------------------------------------
 ------------------------------------------------------------------------
 ------------------------------------------------------------------------
 --6---9---4----4---6---9-9---4--2---------------------------------------
 --6---9---4----4---6---9-9---4--2---------------------------------------
 --4---7---2----2---4---7-7---2--0---------------------------------------
 ------------------------------------------------------------------------
 ------------------------------------------------------------------------
 ------------------------------------------------------------------------
 --6---9---4---6---------------------------------------------------------
 --6---9---4---6---2-----------------------------------------------------
 --4---7---2---4---2-----------------------------------------------------
 ------------------0-----------------------------------------------------

[B5]Do you know Whe[C#5]re you want to go
[G#5]I ain't got time[A5] for you now
[B5]Do you think Th[C#5]at'll ever be
Pre Chorus:
E5 D#5 C#5 B5 A5 ( or some sorta slide like that)
Cuz all I ever want is so far gone
[E5]And if[D#5] I had [C#5]my chanc[B5]e I'd g[A5]o along
Chorus:
(Just play the intro through the chorus)
You're making me fall down
I'm fallin' down again
I wish you could fall down
Can you catch me darlin
Do you see What you do for me
You make time for me now
Do you think that'll ever be
Pre Chorus
Chorus
Alright, next we have a solo, I suck at tabbing solos, but I did tab the
lead in to the solo, and then for the solo I just play the intro, which is
being played also.
 
 -------------------------- ----------------------------------
 ---------4--4h5p4-0-4-5--- ---5-4---7--5--5------------------
 --6-6--------------------- ----------------------------------
 --6-6---------------------x3 ----------------------------------
 --4-4--------------------- ----------------------------------
 -------------------------- ----------------------------------

nows when I play the intro
then:
pre chorus
Chorus
 
 ---------------------------------------------------------------------------

Is was no work of art but it was my best shot
Like I said, any improvements, Please do!
L8r
[Dan]  

Important: The song above is NOT stored on the Chordie server. The original song is hosted at tabfu.thudspace.net. Chordie works as a search engine and provides on-the-fly formatting. Chordie does not index songs against artists'/composers' will. To remove this song please click here.

Text color:
Chord color:
Chord grids: 
Font size:    
Page size: 

A5 B5 C#5 D#5 E5 G#5
Rate #1 of 3 versions

Jango Player

Login - add to songbook

SHARE PAGE  



You need to log in to post comments