Guitar Tabs, Chords and Lyrics
Major upgrade!! After one year development the new version of Chordie is now online! Please give feedback.


Cult of Personality   Living Colour

 
 e--------------------------------I
 b--------------------------------I
 g--------------------------------I
 D----3-----2-----3-----2-2-------I
 A------5-----------5-------------I
 E--3-----3-----3-----3-----------I

 


 [1] [+] [2] [+] [3] [+] [4] [+]  


 Riff 2 (3/4)


 


 

 
 e--------------------------I
 b--------------------------I
 g----------------2---------I
 D----3-----5-3-0---3-0-----I
 A------5---------------3-2-I
 E--3-----3-----------------I

 


 [1] [+] [2] [+] [3] [+]  


 Riff 3 (3/4)


 


 

 
 e--------------------------I
 b--------------------------I
 g----------2-----4-3-0-----I
 D----3-------3-0-------3-0-I
 A------5-------------------I
 E--3-----3-----------------I


Important: The song above is NOT stored on the Chordie server. The original song is hosted at tabfu.thudspace.net. Chordie works as a search engine and provides on-the-fly formatting. Chordie does not index songs against artists'/composers' will. To remove this song please click here.

This song is displayed as text-only. Transposing and tuning is only available for chordpro-songs.
Rate #2 of 8 versions

Login - add to songbook

SHARE PAGE  



You need to log in to post comments