Guitar Tabs, Chords and Lyrics
Major upgrade!! After one year development the new version of Chordie is now online! Please give feedback.


Prisoner of Society  The Living End

Date: Tue, 26 May 1998 11:38:31 +0930
From: Champ
Subject: l/living_end/prisoner_of_society.crd
Prisoner of Society
Intro:
 
 -------4-----5-----6------------
 -------4-----5-----6------------
 -9-----5-----6-----7-----2-0-2/-
 -0-----6-----7-----8-----2-0-2/-
 -7-----6-----7-----8-----0-0-0--
 -0-0-0-4-0-0-5-0-0-6-0-0--------

Repeat 4 times, on last stay at A note
Bass enters:
A C D E x2
Guitar:
A C D E x2
Verse:
Well we don't need no one to tell us what to do
[A]Oh yes we're on our own an there's nothing you can do
[A]So we don't need no one like you, to tell us what to do
[C]between D & A, play this[D] [A]
 
 ---------------
 ---------------
 ---------------
 ---------------
 ---------------
 ---------------

play this after A
 
 ---------------
 ---------------
 ---------------
 ---------------
 -3-2-0---2-3---
 -------3-----3-

We don't refer to the past, when showing what we've done
[A]Our generations got me the war is never won
[A]The past is in your head, the futures in our hands
[C] [D] [A] 
Pre Chorus:
Coz Im a brat and I know everything
[A]And I talk back, Coz Im not listening to anything you say
[C] [F] [G] [A] 
Chorus:
And if you count to three, 1, 2, 3
[D]You'll see there's no emergency
You'll see i'm not the[Bb] enemy
Just a prisoner of soci[F]ety
E - Hammer on like this
[-7-7-7-7-]-8-8-8-8-
[-9-9-9-9-]  
[-9-9-9-9-]-7-8-7-8-
 
 ---------

Intro x2
Verse 2:
Well we don't need no one to tell us what to do
[A]Oh yes we're on our own an there's nothing you can do
[A]So we don't need no one like you, to tell us what to do
[C] [D] [A] 
Pre Chorus
Chorus
 
 ------------------------------------------------
 ------------------------------------------------
 -2-2-2-3-3-3-2-2-2------------------------------
 -2-2-2-3-3-3-2-2-2------------------------------
 ------------------------------------------------
 ------------------------------------------------
 ------------------------------------------------
 ------------------------------------------------
 -2-2-2-3-3-3-2-2-2------------------------------
 -2-2-2-3-3-3-2-2-2------------------------------
 ------------------------------------------------
 ------------------------------------------------
 ------------------------------------------------
 ------------------------------------------------
 -8-8-8-9-9-9-8-8-8------------------------------
 -8-8-8-9-9-9-8-8-8------------------------------
 ------------------------------------------------
 ------------------------------------------------
 ------------------------------------------------
 ------------------------------------------------
 -2-2-2-3-3-3-2-2-2------------------------------
 -2-2-2-3-3-3-2-2-2------------------------------
 ------------------------------------------------
 ------------------------------------------------
 ------------------------------------------------
 ------------------------------------------------
 -8-8-8-9-9-9-8-8-8------------------------------
 -8-8-8-9-9-9-8-8-8------------------------------
 ------------------------------------------------
 ------------------------------------------------

Solo: .........
Verse 3:
Well we don't need no one to tell us what to do
[A]Oh yes we're on our own an there's nothing you can do
[A]So we don't need no one like you, to tell us what to do
[C]We don't refer to the past, when[D] showing what we've done[A]
[A]Our generations got me the war is never won
[A]So we don't need no one like you, to tell us what to do
[C] [D] [A] 
Pre Chorus
Chorus
End on E

Important: The song above is NOT stored on the Chordie server. The original song is hosted at tabfu.thudspace.net. Chordie works as a search engine and provides on-the-fly formatting. Chordie does not index songs against artists'/composers' will. To remove this song please click here.

Text color:
Chord color:
Chord grids: 
Font size:    
Page size: 

A Bb C D F G
Rate #1 of 9 versions

Login - add to songbook

SHARE PAGE  




You need to log in to post comments