Guitar Tabs, Chords and Lyrics
Major upgrade!! After one year development the new version of Chordie is now online! Please give feedback.


Motorcycle Emptiness   Manic Street Preachers

 
 ----- ------------- -------------------------------------- -------
 ----- ------------- -2h4-4-4-4h6-6-6-6h8-8-8-8h9/11------- -------
 ----- ------------- -------------------------------------- -------
 -9^9- -7h9p7h9-9^9- --------------------------------13^13- -11h13p
 ----- ------------- -------------------------------------- -------
 ----- ------------- -------------------------------------- -------

 


 twice twice


 


 x x x x x x Riff 3


 

 
 ------------ ---------------------------------- ------- -----------
 ------------ -2h4-4-4-4h6-6-6-6h8-8-8-8h9/11-8- ------- -----------
 ------------ ---------------------------------- -12^12- -12h14p12--
 11h13-13^13- ---------------------------------- ------- -----------
 ------------ ---------------------------------- ------- -----------
 ------------ ---------------------------------- ------- -----------

 


 twice


 


 

 
 ----------
 ---------- 

 


 h14-12^12- ascending run as above


 

 
 ----------
 ----------
 ---------- 

 


 


 INTRO and FIRST verse


 


 Riff 1 Riff 2 Riff 3


 


 SECOND verse


 


 Riff 1 Riff 3 Riff 2


 


 CHORUS consists of simple chord progression based on E major


 


 SOLO


 


 

 
 ---------------------------- ------------------------------------
 -12-(12)^12--9---9-12-15^15- -14-(14)^14--12-10-10^10----------12
 ---------------9------------ -------------------------11-11/13---
 ---------------------------- ------------------------------------
 ---------------------------- ------------------------------------
 ---------------------------- ------------------------------------

 


 


 =


 

 
 -------------------------/--15--\--------------------------------
 -12-(12)^12--9---9-12--15--------15-----trill-section------------
 ---------------9-------------------------------------------------
 -----------------------------------------------------------------
 -----------------------------------------------------------------
 -----------------------------------------------------------------

 


 


 


 OUTRO


 


 

 
 ---- ------------- ----------------------------------------------
 -12- -12p10------- ----------------------------------------------
 ---- -------13-11- -13-12^12--13-^-13-11h13p11h13-13^13----------
 ---- ------------- ----------------------------------------------
 ---- ------------- ----------------------------------------------
 ---- ------------- ----------------------------------------------

 


 x6


 


 

 
 -------------------- -----------------10-10^10-p8h10p8--8h10p8h10
 -------------------- -/10-12p10h12p10----------------------------
 ---9-6-9--9/11^11-9- --------------------------------------------
 -9------------------ --------------------------------------------
 -------------------- --------------------------------------------
 -------------------- --------------------------------------------
 -10^10- -------------------- -------------
 ------- --11-(11)----------- -------------
 ------- --11^-9----------9-- ------9-9----
 ------- ------------9h11---- -9h11--------
 ------- -------------------- -------------
 ------- -------------------- ------------- 


Important: The song above is NOT stored on the Chordie server. The original song is hosted at tabfu.thudspace.net. Chordie works as a search engine and provides on-the-fly formatting. Chordie does not index songs against artists'/composers' will. To remove this song please click here.

This song is displayed as text-only. Transposing and tuning is only available for chordpro-songs.
Rate #5 of 14 versions

Login - add to songbook

SHARE PAGE  



You need to log in to post comments