Guitar Tabs, Chords and Lyrics
Major upgrade!! After one year development the new version of Chordie is now online! Please give feedback.


Wake Up Dead   Megadeth

 
 ------------------------------------------------------------
 ------------------------------------------------------------
 ------------------------------------------------------------
 -----------------------------------------3------------------
 2-------5------------------------2-------1------------------
 0--0000-3------------------------0--0000-------------------- 

 


 I sneak in my own house its 4 in the morning


 PM== PM== PM==


 

 
 ------------------------------------------------------------
 ------------------------------------------------------------
 ------------------------------------------------------------
 --------5------------------------------7--------8/----------
 2-------3-----------------------2------5-2------6/----------
 0--0000-------------------------0--0000--0--0000------------ 

 


 I had too much to drink, Said I was out with the boys


 w/ Rhy fig 1


 I creep in my bedroom


 I slip into bed


 I know if I wake her


 I'll Wake up


 


 Guitar Solo (rhy fig 1)


 [+]  


 

 
 ------------------------------------------2-----------------
 --------------------------------------------5p2-------------
 --4^-----4>----------x---4--4^---------4^------4h5p4p2------
 ---------------------x--------------------------------------
 ------------------------------------------------------------
 ------------------------------------------------------------ 

 


 dead...


 +Semi Harmonic


 

 
 ---------------------------------55-9p7p54------------------
 ------------------------------------------5--5/7-55---------
 4p2--2--------------------------------------6------4--------
 ---4--4p2--2-4p2-----2-4~---------------------------4-44-6~-
 ---------4-------234----------------------------------------
 ------------------------------------------------------------ 

 


 [+]  


 

 
 ------------------------------------------------------------
 ------------------------------------------------------------
 -----------------------4^---x---16>--(16)--------(16)-------
 ----6--6h7-77--9/---4-------x-------------------------------
 ------------------------------------------------------------
 ------------------------------------------------------------ 

 


 Depress bar then raise


 

 
 ------------------------------14h7p14-1719^--------14-------
 -14h17p14141417p1419p141417p14------------------------------
 ------------------------------------------------------------
 ------------------------------------------------------------
 ------------------------------------------------------------
 ------------------------------------------------------------
 19p17p141419p17p14141417(14)14--19141917----1619--17p14-----
 ------------------------------14--------1417-----------17---
 ------------------------------------------------------------
 ------------------------------------------------------------
 ------------------------------------------------------------
 ------------------------------------------------------------
 19p17p14--14-19p17p14171419p17p14-17-19p17p14--
 --------17-----------------------------------17
 -----------------------------------------------
 -----------------------------------------------
 -----------------------------------------------
 -----------------------------------------------
 14-19p--17p14--19p-17p14-19p-17p14-19p1714-18p17--14--------
 ----------------------------------------------------17------
 ------------------------------------------------------16----
 ------------------------------------------------------------
 ------------------------------------------------------------
 ------------------------------------------------------------
 ------------------------------------------------------------
 -----17^-------------(17)-----------------------------------
 -----16^-------------(16)-----------------------------------
 ------------------------------------------------------------
 ------------------------------------------------------------
 ------------------------------------------------------------ 

 


 play 4 times PM===================


 

 
 ------------------------------------------------------------
 ------------------------------------------------------------
 ------------------------------------------------------------
 12-11----------12-11----------------------------------------
 10--9-x-11-12--10--9-9-10-----------------------------------
 ------x--9-10-------------12-14-10-12-9-10------------------ 

 


 


 PM==== PM== PM PM PM PM==========


 

 
 ------------------------------------------------------------
 ------------------------------------------------------------
 ------------------------------------7-------7---------------
 ------------------------------------5-------5---------------
 10--9---8--------7--------8----7------8---7-----------------
 -8--7---6--0--0--5--0--0--6-0--5--0---6-0-5----0-0-0-0-0-0--
 ----------------------
 ----------------------
 ----------------------
 -9------8-7-6---------
 -7--10--6-5-4--7--10-9
 -----8---------5---8-7
 ------------------------------------------------------------
 ------------------------------------------------------------
 ------------------------------------------------------------
 ------------------------5\3---------------------------------
 ---8---3--3--3---5------3\1--5------------------------------
 ---6---1--1--1---3-----------3------------------------------ 

 


 


 RHY FIG 2


 

 
 ------------------------------------------------------------
 ------------------------------------------------------------
 ------------------------------------------------------------
 ------------4---------------------7----6--4-----------------
 6----6-6-6--2--4------5-6--6-6-6--5----4--2-----------------
 4----4-4-4-----2------3-4--4-4-4---------------------------- 

 


 


 Guitar Solo II


 w/ RHY FIG 2


 

 
 ------------------------------------------------------------
 ------------------------------------------------------------
 ------6^%----------------6%-----6%------6%------------------
 ------------------------------------------------------------
 ------------------------------------------------------------
 ------------------------------------------------------------
 ------------------------------------------------------------
 -----------------------------------4-----4-4----------------
 --6-4-------4----------4-64---4-6^---6p4--------------------
 -------6646---56--4-56------66------------------------------
 -----------------4------------------------------------------
 ------------------------------------------------------------
 ------------------------------------------------------------
 ------7----7-------8-------9------10-------11------12-------
 ---/9--9/10--10/11---11/12--12/13----13/14---14/15---15-16--
 ------------------------------------------------------------
 ------------------------------------------------------------
 ------------------------------------------------------------
 ------------------------------------------------------------
 13------14------15-------15-16----16-17-------18-------19---
 --16-17---16-17----17-18-------19-------20-21----19-21------
 ------------------------------------------------------------
 ------------------------------------------------------------
 ------------------------------------------------------------
 -16h19p16---1619p16--1621p1619p16---1621p16-----21^---------
 ---------19--------19------------19-------------------------
 ------------------------------------------------------------
 ------------------------------------------------------------
 ------------------------------------------------------------
 ------------------------------------------------------------
 ------------------------------------------------------------
 ------------------------------------------------------------
 ------------------------------------------------------------
 ------------------------------------------------------------
 ------------------------------------------------------------
 ------------------------------------------------/9----------
 ----------------------------------------6h99^-(9)-p6--------
 --------------------------------------6--------------9------
 --------------------------6-------6h8-----------------------
 ----------6-------6h8p6h8---8p6h8---------------------------
 -8-6h8p6h8--8p6h8-------------------------------------------
 ------------------------------------------------------------
 -------6----------------------------------------------------
 --6h9^---9p6---6--------------------------------------------
 -------------8---8^p6-6^------------------------------------
 -------------------------8-6--------------------------------
 ------------------------------8-6-4----4--(4)-4^--2^--------
 ------------------------------------6-----------------------
 ------------------------------------------------------------
 ------------------------------------------------------------
 ------------------------------------------------------------
 --------6--------------------------------6------------------
 ------------------------6p4-----------------------------6p4-
 4-4-4-4---4-4-4-4-4-4-4-----4-4-4-4-4-4-4--4-4-4-4-4-4-4----
 ------------------------------------------------------------
 ------------------------------------------------------------
 -----------------4---5--------------------------------------
 -7--9---6--------4---5--5-----------------------------------
 -7--9---6--------2---3--5-----------------------------------
 -5--7---4---------------3----------------------------------- 

 


 


 Riff A


 


 

 
 ------------------------------------------------------------
 ------------------------------------------------------------
 ------------------------------------------------------------
 --------4---------------------------------------------------
 ---------------------------4p2------------------------------
 2-2-2-2---2-2-2-2-2-2-2-2------2-2-2-2-2-222-2-2-2-2-2-2-2-2
 ------------------------------------------------------------
 ------------------------------------------------------------
 ------------------------------------------------------------
 -4p2---2------------------------6---------------------------
 ----4-2--4/2/1-4-32-0-2h3-----5--------5---5----------------
 -------------------------23-4------------4------------------ 

 


 


 Oh I wonder will she find out?


 'bout the other, other lover diana


 


 

 
 ------------------------------------------------------------
 ------------------------------------------------------------
 --------------------------------------7\--------------------
 4---3----2--------3--000--0h2-2--2----7\--------------------
 4---3----2--------3-----2-----2--2----5\--------------------
 2---1----0-----3--1-----------0--0-------------------------- 

 


 


 Guitar Solo III


 

 
 8p0h7p0h8p0h7p0h8p0h7p0h8p0h7p0h8p0h7p0-12/2424-------14151415
 ------------------------------------------------------------
 ------------------------------------------------11121112----
 ------------------------------------------------------------
 ------------------------------------------------------------
 ------------------------------------------------------------
 8p0h7p0h8p0h7p0h8p0h7p0h8p0h7p0h8p0h7-8/10-12-11-10-9-8/15--
 ------------------------------------------------------------
 ------------------------------------------------------------
 ------------------------------------------------------------
 ------------------------------------------------------------
 ------------------------------------------------------------ 


Important: The song above is NOT stored on the Chordie server. The original song is hosted at tabfu.thudspace.net. Chordie works as a search engine and provides on-the-fly formatting. Chordie does not index songs against artists'/composers' will. To remove this song please click here.

This song is displayed as text-only. Transposing and tuning is only available for chordpro-songs.
Rate #2 of 4 versions

Jango Player

Login - add to songbook

SHARE PAGE  




You need to log in to post comments