Guitar Tabs, Chords and Lyrics
Major upgrade!! After one year development the new version of Chordie is now online! Please give feedback.


Oven   Melvins

 
 E- -------------------------------- ------------------------
 B- -------------------------------- ------------------------
 G- -3-------3---------4------4----- -3-------3---------4---- repeat
 D- -3-------3---------4------4----- -3-------3---------4---- 1st bar
 A- -1-1-1-1-1-1-1-1---2------2----- -1-1-1-1-1-1-1-1---2----
 E- ---0-0-0---0-0-0-0------0------- ---0-0-0---0-0-0-0------ 

 


 x x x x x x x x x x x x x x x


 


 [4/4] [1] [2] [3] [+] [4] [+] [1] [2] [3] [+] [4]  

 
 E- -------- ----------------------- repeat -------------------
 B- -------- ----------------------- 2 1/2x -------------------
 G- -------- -3--------------4------ -3-----------------
 D- -------- -3--------------4------ 3rd -3-----------------
 A- -1------ -1--------------2------ ending: -1-----------------
 E- -0------ ----------0-0-0-------- ---------0-0-0-0--- 

 


 x x x x x x x


 


 [1] [2] [4/4] [1] [2] [3] [4] [+] 


 

 
 E- ----------- ------------ -------------
 B- ----------- no guitar--- -------------
 G- ----------- for--------- -------------
 D- ----------- 8 measures-- -------------
 A- ----------- ------------ -------------
 E- -0-0-0-0--- ------------ -----------0- 

 


 x x x x x


 7/8 1 2 + 3 + 1 2 3 +


 

 
 E- ------- ---------------- -----------------
 B- ------- ---------------- -----------------
 G- -3----- ---------------- -3---------------
 D- -3----- ---------------- -3---------------
 A- -1----- -1-1-----1------ -1----1-1--------
 E- ------- -0-0-----0---0-- ------0-0-----0-- 

 


 x x x x x x x


 


 [3/4] [1] [2] [3] [4]  


 

 
 E- ------- ------------------------------
 B- ------- ------------------------------
 G- -3----- -3----------------------------
 D- -3----- -3----------------------------
 A- -1----- -1----1-------1-------1-------
 E- ------- ------0-0-0-0-0-0-0-0-0-0-0-0- 

 


 x x x x x x x x x x x x


 Riff A: End Riff A


 


 [1] [2] [+] [3] [+] [1] [2] [+] [3] [+] 


 

 
 E- ------------------- ---------------------
 B- ------------------- ---------------------
 G- ------------------- ---------------------
 D- -2----------------- ---------------------
 A- -2----------------- -------2----------1--
 E- -0------0------0-0- -0-2-3---3-2-3-2----- 

 


 


 


 [1] [2] [+] [3] [4] [4]  

 
 E- ---------------------- Repeat ----------------
 B- ---------------------- Riff A ----------------
 G- ---------------------- Add: ----------------
 D- ---------------------- ----------------
 A- ---------------------- ----------------
 E- -0-0-0-0----0-0-0-0--- --------0-0-0-0- 

 


 x x x x x x x x x x x x


 Repeat Riff A, then:


 


 [1] [2] [3] [1] [2] [3] [4] 


 

 
 E- ---------------------- --------------------------------- ----
 B- ---------------------- --------------------------------- ----
 G- ---------------------- --------------------------------- ----
 D- ---------------------- --------------------------------- ----
 A- -1-------1------------ -1-------1-------1-------1------- -1--
 E- -0-0-0-0-0-0-0-0------ -0-0-0-0-0-0-0-0-0-0-0-0-0-0-0-0- -0-- 


Important: The song above is NOT stored on the Chordie server. The original song is hosted at tabfu.thudspace.net. Chordie works as a search engine and provides on-the-fly formatting. Chordie does not index songs against artists'/composers' will. To remove this song please click here.

This song is displayed as text-only. Transposing and tuning is only available for chordpro-songs.
Rate #3 of 4 versions

Jango Player

Login - add to songbook

SHARE PAGE  




You need to log in to post comments