Guitar Tabs, Chords and Lyrics
Major upgrade!! After one year development the new version of Chordie is now online! Please give feedback.


Jump in the Fire   Metallica

 
 ----------------- ----------------- -----------------
 ----------------- ----------------- -----------------
 o---------------o ----------------- -5-------3-------
 o--------3------o ---------3------- -5-------3-------
 -----5-3---5-4-3- -----5-3---5-4-3- -3-------1-------
 -3-6------------- -3-6------------- ----------------- 

 


 


 8 8 8 8 8 8 8 8 8 8 8 8 8 8 8 8 2 2


 

 
 ----------------- ----------------- -----------------
 ----------------- ----------------- -----------------
 o---------------o ----------------- -5-------3-------
 o--------3------o -3-------3------- -5-------3-------
 -----3-5---5-4-3- ---5-4-3---5-4-3- -3-------1-------
 -3-6------------- ----------------- ----------------- 

 


 


 8 8 8 8 8 8 8 8 8 8 8 8 8 8 8 8 8 8 8 8 8 4.5


 

 
 ----------------- ----------------- -----------------
 ----------------- ----------------- -----------------
 o---------------o ----------------- -----------------
 o--------3------o -5-3---3--------- ---------3-5~~~~-
 -----3-5---5-4-3- -----5---5-4-3--- -----3-5---------
 -3-6------------- ---------------6- -3-6------------- 

 


 


 8 8 8 8 8 8 8 8 8 8 8 8 8 8 8 8 2 2


 

 
 ----------------- ----------------- -----------------
 ----------------- ----------------- -----------------
 o---------------o ----------------- -5-------3-------
 o--------3------o -3-------3------- -5-------3-------
 -----3-5---5-4-3- ---5-4-3---5-4-3- -3-------1-------
 -3-6------------- ----------------- ----------------- 

 


 


 Riff 2 (Don't play repeat 4 during lead)


 1. 2. 3.


 

 
 +-----------------+

 


 __3__ __3__


 8 8 8 8 8 8 8 8 2 4 4 4 8 8 8 8 8 8 8 8 2 8 8 8 4


 

 
 ----------------- ----------------- ----------------- -----------------
 ----------------- ----------------- ----------------- -----------------
 o--------------3===3--------------- ---------------5===5---x-x-x---6--o
 o--------------3===3-------3-3-3--- ---------------5===5---x-x-x---6--o
 ---------------1===1-------3-3-3--- ---------------3===3---x-x-x---4---
 -1-3-1-3-1-3-1--- ---------1-1-1--- -1-3-1-3-1-3-1--- ----------------- 

 


 


 4.


 

 
 +-----------------+

 


 2 8 8 8 8


 

 
 -----------------
 -----------------
 ==5-----6-----6--o
 ==5--R--6--R--6--o
 ==3-----4-----4---
 ----------------- 

 


 


 Riff 3


 


 8 8 8 8 4 8 8 8 8 4 8 8 8 8 8 8 8 8 4 8 8 8 8 4 8 8 8 8


 

 
 ----------------- ----------------- ----------------- -----------------
 ----------------- ----------------- ----------------- -----------------
 ----------------- ----------------- ----------------- -----------------
 -8-8-8-8--R--8-8- -8-8--R--6-R-8-R- -5-5-5-5--R--5-5- -5-5--R--3-R-5-R-
 -8-8-8-8-----8-8- -8-8-----6---8--- -5-5-5-5-----5-5- -5-5-----3---5---
 -6-6-6-6-----6-6- -6-6-----4---6--- -3-3-3-3-----3-3- -3-3-----1---3--- 


Important: The song above is NOT stored on the Chordie server. The original song is hosted at tabfu.thudspace.net. Chordie works as a search engine and provides on-the-fly formatting. Chordie does not index songs against artists'/composers' will. To remove this song please click here.

This song is displayed as text-only. Transposing and tuning is only available for chordpro-songs.
Rate #1 of 4 versions

Login - add to songbook

SHARE PAGE  



You need to log in to post comments