Guitar Tabs, Chords and Lyrics
Major upgrade!! After one year development the new version of Chordie is now online! Please give feedback.


Cage Around the Sun   Monster Magnet

 
 e -----------------------------------------
 B -----------------------------------------
 G -6--9--11--9--13--9--8--9----------------
 D -6--9--11--9--13--9--8--9----------------
 A -4--7--9---7--11--7--6--7----------------
 E -----------------------------------------

 


 !These are just the chords he plays listen to the cd for strumming!


 


 chord progression : (HEAVY DISTORDED PART)


 


 

 
 e ---------------
 B ---------------
 G -6--9--11--9---
 D -6--9--11--9---
 A -4--7--9---7---
 E ---------------


Important: The song above is NOT stored on the Chordie server. The original song is hosted at tabfu.thudspace.net. Chordie works as a search engine and provides on-the-fly formatting. Chordie does not index songs against artists'/composers' will. To remove this song please click here.

This song is displayed as text-only. Transposing and tuning is only available for chordpro-songs.
Rate #2 of 5 versions

Login - add to songbook

SHARE PAGE  




You need to log in to post comments