Guitar Tabs, Chords and Lyrics
Major upgrade!! After one year development the new version of Chordie is now online! Please give feedback.


Drain You  Nirvana

Drain You - Nirvana
 
 ---------

Chords used:
[A] [B] [C#] [G] [F#] [E] [D]  
 
 --0---2---4---3---2---0---2--
 --2---4---6---3---2---0---3--
 --2---4---6---4---3---1---2--
 --2---4---6---5---4---2---0--
 --0---2---4---5---4---2------
 --------------3---2---0------

Verse:
[A] One ba[C#]by [F#]to ano[B]ther [A]said I'm ha[C#]ppy to've [F#]met you..[B].
[A]I don't [C#]care [F#]what you [B]think un[A]less it is[C#] about me[F#]
(more lyrics that I've forgotten and can no longer decipher)
Chorus:
[E] [D] Too [B]good for you. [D]Pass it [B]back and forth...
Here's my passionate kiss...
From my mouth to yours,
[A]I [G]like [F#]you...
The rest is pretty much the same
[---]Transcribed by...
Mr.Scary (Gary Chapman)
 
 ---------------------------- NOTE: Stay tuned for

s892011@minyos.xx.rmit.oz.au my new e-mail address.
From: JeremiahM@aol.com
Drain You
Nirvana
Jeremiah M@Aol.com
Here is what I play for Drain You.
[A#A#A#] [D] [D] [D] [G] [G] [G] [C] [C] [C]  
 
 --------------------------------------
 ---------------------------------------
 ----------------7--7--7-0----------------5--5--5-0
 ---8--8--8----7--7--7-0----5--5--5---5--5--5-0
 ---8--8--8----5--5--5-0-- -5--5--5---3--3--3-0
 ---6--6--6------------------ -3--3--3--------

^
About here on the second time the distortion
comes in.
[A#]One b[A#]aby to[A#] anot[D]her[D] sa[D]ys I[G]'m [G]luc[G]ky t[C]o h[C]ave[C] met you
[A#]I don[A#]'t car[A#]e what[D] yo[D]u t[D]hink[G] un[G]les[G]s i[C]t's[C] ab[C]out me
[A#]It i[A#]s no[A#]w my[D] du[D]ty [D]to [G]com[G]ple[G]tel[C]y d[C]rai[C]n you etc...
Chorus
[E]Chew you[E]r meat [E]for yo[D]u, pa[D]ss it [D]back [B]and fo[B]rth[B]
[E]Here's m[E]y passio[E]nate ki[D]ss,fr[D]om m[D]y mou[B]th to[B] yours[B]
[A] I L[G]IKE YO[F#]U
*Hit each cord real hard here*
By Kurt Cobain
Here we go again, I hope someone is really reading this
ocause if not I may feel kind of stupid writting this
to no one, I hope there is still people that hear Nirvana
and that play guitar, if possible. Well letos start with
the song titled "Drain You" that is wonderful, the music
the lyrics, etc.
Tune down your guitar one whole step
rhy.fig 1
 
 ------------------------------------------------
 ------------------------------------------------
 --4--4---4/8--8--8----------------6--6--6---0---
 --4--4---4/8--8--8---0--6--6---0--6--6--6---0---
 --2--2---2/6--6--6---0--6--6---0--4--4--4---0---
 ---------------------0--4--4---0----------------

w/rhy.fig. 1 *
One baby to another says Iom lucky to meet you.
I donot care what you think unless it is about me.
It is now my duty to completely drain you.
A travel through a tube and end up in your infection.
*Note:here you obviously have to put distortion after
"...to meet you"
fill A (w/dist)
 
 ------------------------------------------------
 ------------------------------------------------
 ------------------------------------------------
 --4---4---0---2--2------------------------------
 --4---4---0---2--2------------------------------
 --2---2---0---0--0------------------------------

rhy.fig 2 (w/dist)
 
 ------------------------------------------------
 ------------------------------------------------
 --6--6--6--6--6--------1--1--1--1---------------
 --6--6--6--6--6----0---2--2--2--2---------------
 --4--4--4--4--4----0---2--2--2--2---------------
 -------------------0---0--0--0--0---------------

w/fill A ,first then rhy.fig. 2
Chew meat for you,
pass it back and forth.
In a passionate kiss,
from my mouth to yours
ocause I like you (w/dist.)
 
 ------------------------------------------------
 ------------------------------------------------
 --4---------2-----------------------------------
 --4---------2--------6--------------------------
 --2---------0--------6--------------------------
 ---------------------4--------------------------

w/rhy.fig 1 w/distortion
With eyes so dilated Iove become your pupil.
Youove thaught me everything without a poison apple.
The water is so yellow, Iom a healthy student.
Indebted and so greatful.Vacuum out the fluids.
w/fill A ,first then rhy.fig. 2
Chew meat for you,
pass it back and forth.
In a passionate kiss,
from my mouth to yours
ocause I like you, you, you,
 
 ------------------------------------------------
 ------------------------------------------------
 --4---------2-----------------------------------
 --4---------2--------6--------------------------
 --2---------0--------6--------------------------
 ---------------------4--------------------------

Note:the following is studio noises you just may
not play anything, thatos what they used to do
in a concert,then is the following
w/distortion & flanger (dist off)
 
 -0----------------------------0-----------------
 -0----------------------------0-----------------
 -0----------------------------0-----------------
 ------------------------------------------------ X4
 ------------------------------------------------
 ------------------------------------------------

without dist.
 
 ------------------------------------------------
 ------------------------------------------------
 ----5\--4\--3\--2\--1/--2/--3/--4/--5-----------
 ----5\--4\--3\--2\--1/--2/--3/--4/--5-----------
 ----5\--4\--3\--2\--1/--2/--3/--4/--5-----------
 ------------------------------------------------

w/distortion
Ah!_____________________
/\/\ /\/\/ /\/\/\/
 
 --h---------------------------------------------
 -4-5---2/3---(3)--4---5/--6/--7/---8------------
 ------------------------------------------------
 ------------------------------------------------
 ------------------------------------------------
 ------------------------------------------------

/\/\/\/\/ /\/\/\/\/
 
 ------------------------------------------------
 --10------------14------------------------------
 --10------------14------------------------------
 ------------------------------------------------
 ------------------------------------------------
 ------------------------------------------------

/\/\/\/\/\/\/\/\/\/\/\/\/
grad. slide
 
 ------------------------------------------------
 --16/------------/18/---------------------------
 --16/------------/18/---------------------------
 --16/------------/18/---------------------------
 ------------------------------------------------

One baby to another says Iom lucky to meet you.
I donot care what you think unless it is about me.
It is now my duty to completely drain you.
A travel through a tube and end up in your infection.
w/fill A first then w/rhy.fig.2
Chew meat for you,
pass it back and

Important: The song above is NOT stored on the Chordie server. The original song is hosted at tabfu.thudspace.net. Chordie works as a search engine and provides on-the-fly formatting. Chordie does not index songs against artists'/composers' will. To remove this song please click here.

Text color:
Chord color:
Chord grids: 
Font size:    
Page size: 

A A# B C C# D E F# G
Rate #7 of 9 versions

Jango Player

Login - add to songbook

SHARE PAGE  




You need to log in to post comments