Guitar Tabs, Chords and Lyrics
Server problems seems to be fixed. Chordie has been experiencing problems with songs disappearing. These issues now seems to be fixed, but still verifying the fix. If you find anything strange, please email admin@chordie.com.


Snakeskin Cowboys  Ted Nugent

Date: Tue, 01 Aug 95 10:32:00 PDT
I'm not going to write out the whole tune, just the main riffs.
The sample lyrics should help in placing the guitar parts.
Snakeskin Coyboys
Ted Nugent
Epic EK 33692
Intro 2x B D A E 2x
 
 -------------------------------- --------------------------------
 -------------------------------- --------------------------------
 *------------------------------* ---4------7--7-----2-----------*
 *----------5-4---5-4---------9-* ---4------7--7-----2--------2--*
 -------5-----------------4-5-7-- ---2------5--5-----0--------2---
 ---7-----7-----------5---------- ------------------------3b4-0--- 

B D A E 2x
 
 --------------------------- -----------------------0-----0--
 --------------------------- -----------------------0-----0--
 --------------------------- -------------------------------*
 -4-4---6-4-6---7-7---9-7-9- -2-2---4-2---------------------*
 -2-2---2-2-2---5-5---5-5-5- -0-0---0-0---------2------------
 --------------------------- ---------------3b4p0-0---0-0---- 

Snakeskin cowboys who d'hell d'you think you are?
Runnin around in your high-heeled boots, don't think that you'll get too
far
D B 3x
 
 ---------------------------------------------
 ---------------------------------------------
 *-------------------------------------------*
 *-7-7-9---7-9-------------------4-4-6---4-6-*
 --5-5-7---5-5-------------------2-2-2---2-2--
 --------------------------------------------- 

Just hangin' 'round with your fancy pants on
Ain't got nuthin' on me
Thinkin' you got (beats me???)
[D] [E] [F#]  
 
 --------------------------------------------
 --------------------------------------------
 --7-----------------9-----------11----------
 --7-----------------9-----------11----------
 --5-----------------7-----------9-----------
 -------------------------------------------- 

Stick around boys, maybe I can set you free
( et cetera, ad nauseaum )

Important: The song above is NOT stored on the Chordie server. The original song is hosted at tabfu.thudspace.net. Chordie works as a search engine and provides on-the-fly formatting. Chordie does not index songs against artists'/composers' will. To remove this song please click here.

Text color:
Chord color:
Chord grids: 
Font size:    
Page size: 

D E F#
Rate #1 of 4 versions

Login - add to songbook

SHARE PAGE  




You need to log in to post comments