Guitar Tabs, Chords and Lyrics
Major upgrade!! After one year development the new version of Chordie is now online! Please give feedback.


Strangle Hold   Ted Nugent

 
 --------------------------
 --------------------------
 -----5-5---5-7-7^5--------
 -5-7-5-5-7-5-7-7^5-7-5-7--
 -0-0-----0---------0-5-7--
 --------------------------

 


 * * ***


 


 places where there are a single * you repeat those notes for a while.


 


 Where there is *** you play the following riff the 2nd and fourth


 times:


 


 

 
 ------
 ------

 


 [12-14-]  


 [12-14-]  


 

 
 ------
 ------

 


 


 The riff used after the intro is like the above but much simpler:


 


 

 
 ----------------
 ----------------
 -----5-7--------
 -5-7-5-7-5-7-5-7
 -0-0-----0-0-5-7
 ----------------


Important: The song above is NOT stored on the Chordie server. The original song is hosted at tabfu.thudspace.net. Chordie works as a search engine and provides on-the-fly formatting. Chordie does not index songs against artists'/composers' will. To remove this song please click here.

This song is displayed as text-only. Transposing and tuning is only available for chordpro-songs.
Rate #2 of 2 versions

Jango Player

Login - add to songbook

SHARE PAGE  




You need to log in to post comments