Guitar Tabs, Chords and Lyrics
Login is temporarily disabled for some users. Do not panic. Will be back in an hour or two. DO NOT REREGISTER!!


What Happened to You?  The Offspring

"What happened to you?" - Offspring
From the album Smash
Tab transcription by Mark van 't Zet (tmvtzet@cs.vu.nl)
NOTE
This is played in the usual punk kind of fashion
so don't strum all the strings of the chords below.
Mostly only the 3 strings lowest in pitch (which gives
the incredibly complex note formation known as the powerchord)
USED CHORDS
Name E A D G B E
 
 Bb 6-8-8-7-6-6-

C 8-10109-8-8-
 
 Dm x-5-7-7-6-5-
 E x-7-9-9-9-7-
 Eb x-6-8-8-8-6-

F x-8-1010108-
TAB NOTATION
_
X play staccato
XbY bend from fret X to pitch Y
XrY release from bend at pitch X to fret Y
X...X hold bend at pitch X
INTRO
[Bb]What in the [C]world happened to
[F]you[Bb]?[F] [C]
[F] [Bb] [F] [E] [Eb]  
VERSE 1
Be[Dm]fore you started [Bb]joking you [C]used to have a [F]brain
But [Dm]now you don't [Bb]get even the [C]simplest of [F]things
I [Dm]draw a little [Bb]picture or [C]even use my [F]hands
I [Dm]try to ex[Bb]plain, but you [C]just don't under[F]stand
CHORUS
[Dm](Hey, [Bb]hey) Now you're [F]really [C]losing it
[Dm](Hey, [Bb]hey) Now you you [F]really don't al[C]low that you're gone
[Dm](Hey, [Bb]hey) But you [F]keep on a[C]busing it
[Bb]What in the [C]world happened to
[F]you[Bb]?[F] [C]
[F] [Bb] [F] [E] [Eb]  
VERSE 2
It's not enough to do it, to do it to yourself
You're taking someone with you well you know there's something else
I said `I'm not that kind of person, I'm not that kind of man'
I try to explain, but you just don't understand
CHORUS
(Hey, hey) Now you're really losing it..
SOLO - Over verse chords
 
 --------------------------------------------------------
 -------------------------------------_------------------
 ------------5--7--5--7b9r7--5-----5--7------------------
 -------5--7--------------------7------------------------
 --5--8--------------------------------------------------
 --------------------------------------------------------
 --------------------------------------------------------
 ------------------------------8------_------------------
 ------------5--7--5--7b9...9----9r7--5------------------
 -------5--7---------------------------------------------
 --5--8--------------------------------------------------
 --------------------------------------------------------
 -------------------------------------------------10-----
 -------------------------------------------10-13----13--
 --------------10--12--10--12b14r12--10--12--------------
 --------10-12-------------------------------------------
 --10-12-------------------------------------------------
 --------------------------------------------------------
 --10b11r10---13-10-13---15-13-15b17---15b17---15-13-----
 --------------------------------------------------------
 --------------------------------------------------------
 --------------------------------------------------------
 --------------------------------------------------------
 --------------------------------------------------------

__
 
 ------------13------------------------------------------
 ---15-13-15---------------------------------------------
 --------------------------------------------------------
 --------------------------------------------------------
 --------------------------------------------------------
 --------------------------------------------------------

CHORUS
(Hey, hey) Now you're really losing it..
VERSE 4
I'm not unsympathetic, I cut a little snack
I thought that you were willing to give a little back
But you do it in the morning, you do it in the night
You lie to a friend from this daze in your life
So I'll see you there tomorrow, be jacking off again
I'll see you when I'm talking, by the time you understand
I think of all the times that I tried to lend a hand
I try to explain but you just don't understand
CHORUS
(Hey, hey) Now you're really losing it..
ENDING
[Bb]What in the [C]world happened to
[Bb]What in the [C]world happened to
[Bb]What in the [C]world happened to [F]you?[Bb] [F] [C] [F]
[--]  

Important: The song above is NOT stored on the Chordie server. The original song is hosted at tabfu.thudspace.net. Chordie works as a search engine and provides on-the-fly formatting. Chordie does not index songs against artists'/composers' will. To remove this song please click here.

Text color:
Chord color:
Chord grids: 
Font size:    
Page size: 

Bb C Dm E Eb F
Rate #1 of 4 versions

Login - add to songbook

SHARE PAGE  



You need to log in to post comments