Guitar Tabs, Chords and Lyrics
Server problems seems to be fixed. Chordie has been experiencing problems with songs disappearing. These issues now seems to be fixed, but still verifying the fix. If you find anything strange, please email admin@chordie.com.


Satan's Bed  Pearl Jam

RSatanUs BedS by: Pearl Jam
transcribed by: Joe Lupo
IUm not sure if this is exactly correct, but IUve played it against a bootleg
recording of it and it sounds good to me.
Verse
~~~~~~
 
 E- -------------------------------
 B- -------------------------------
 G- -------------------------------
 D- -------------------------------
 A- ------4-----4-----4------------
 E- -/5-5---5-5---5-5---5-4-3------ 

Chorus
[C5] [G5] [D5] [A5]  
 
 E- ----------------------------------
 B- ----------------------------------
 G- ---5-------7----------------------
 D- ---5---5---7---7------------------
 A- ---3---5---5---7------------------
 E- -------3-------5------------------ 

(I got the lyrics from the songbook by Joe Danziger)
(play the verse part)
It's not all been said...been said and done...
I've never slept in Satan's bed
Although I must admit...still visits my place
Uninvited, as you know, he don't wait
Funny how he always seems to fit in
Funny how I always want to give in
Sundays, Fridays, Tuesdays, Thursday, the same
Sometimes the special guest, he don't like to leave
(play the chorus part)
Already...in love... (3x)
Already...
(verse)
Who made, who made up, made up the myth
That we were born to be covered in bliss?
Who set the standard, born to be rich?
Such fine examples, skinny little bitch
Model, role model, roll some models in blood
Get some flesh to stick, so they look like us
I shit and I stink, I'm real, join the club
I'd stop and talk, but I'm already in love
(chorus)
Already...in love... (3x)
Already...
(verse)
Never shook Satan's hand, look see for yourself
You'd know it if I had, that shit don't come off
I'll rise and fall, let me take credit for both
Jump off a cliff, don't need your help so back off
I'll never suck Satan's dick
Again, you'd see it, you know, right round the lips
I'll wait for an angel, but I won't hold my breath
'Magine they're busy, think I'm doing okay...
(chorus)
Already...in love... (6x)
Already...
I donUt know if the recording on Vitology is any different from the time they
played it at the Atlanta show, but this is how I got it.
Send any corrections to jlupo@eden.rutgers.edu
(for some reason, there arsome letters thrown in there, don't know why)
From: Silverdrip@aol.com
Date: Sat, 16 Dec 1995 17:24:38 -0500
Subject: TAB: Satan's Bed--pearl jam
Satan's bed
**************
pearl jam
tabbed: jeremy kerans (Silverdrip@aol.com)
intro:
 
 E----12/-- 

main riff:
 
 A-------0-0-4-0-0-4-0-0-4-0------
 E---0-0---------------------4-3-- 

the chorus was posted by joe lupo (thanks), but i added the two rakes after
the chords
right before the chorus is:
 
 E---0-0------- 

Chorus
[C5] [G5] [D5] [A5]  
 
 E- -------------------------------------
 B- -------------------------------------
 G- ---5-------7-------x--x--------------
 D- ---5---5---7---7---x--x--------------
 A- ---3---5---5---7---x--x--------------
 E- -------3-------5---x--x-------------- 

any questions, comments, corrections:
silverdrip@aol.com or
purepig@aol.com
Date: Thu, 28 Mar 1996 19:14:48 -0800
From: David Eichenstein
Satan's Bed by Pearl Jam
tabbed out by dave eichenstein
(punksk8r@earthlink.net)
intro; repeat until chorus
 
 -------------------------------4--3-- ------------------------------------------
 -0--0--4--0--0--4--0--0--4--0-------- ------------------------------------------
 -2--2-----2--2-----2--2-------------- ------------------------------------------
 -2--2-----2--2-----2--2-------------- ------------------------------------------
 -2--2-----2--2-----2--2-------------- ------------------------------------------
 ------------------------------------- ------------------------------------------

chorus; play as many times as they do
 
 ----3-----5-----3-----5---------------------------------------------------------
 -3--5--5--7--3--5--5--7---------------------------------------------------------
 -5--5--7--7--5--5--7--7---------------------------------------------------------
 -5--4--7--8--5--4--7--8---------------------------------------------------------
 -5--5--7--5--5--5--7--5---------------------------------------------------------
 -5--5--7--5--5--5--7--5---------------------------------------------------------


Important: The song above is NOT stored on the Chordie server. The original song is hosted at tabfu.thudspace.net. Chordie works as a search engine and provides on-the-fly formatting. Chordie does not index songs against artists'/composers' will. To remove this song please click here.

Text color:
Chord color:
Chord grids: 
Font size:    
Page size: 

A5 C5 D5 G5
Rate #1 of 1 versions

Jango Player

Login - add to songbook

SHARE PAGE  




You need to log in to post comments