Guitar Tabs, Chords and Lyrics
Major upgrade!! After one year development the new version of Chordie is now online! Please give feedback.


Julius  Phish

Subject: Re: REQ: Phish- Julius
Julius
~From: Chris Corsale (ccorsale@cosi.stockton.edu)
opening part, referred next part, referred
to here as "I" or to as "II" or "part
"part I" II"
/S P P D C
 
 ---------------------------- ----------------------------------
 --------------------------.- -----7---------5------------------
 ---------------------------- -----7---------5------------------
 -------7----5-------------.- -----7---------5------5-----------
 ----7-----5----3------------ -------------------------7---5----
 ------------------5--3--0--- ----------------------------------

ARRANGEMENT:
part I: 6X (4 as intro and 2 w/ singing)
[D]par[C]t I: 4X
[D]par[C]t I: 2X
part II: 4X
part I: 4X
E D 2X --Like part II above, only 2 frets higher
part II (regular): 3X
part I: ONCE
[D]par[C]t I: ONCE
D C (w/ distortion, add band)
--repeat above sequence, this time with the full band--
JAM: A D7 A D7 over and over
HORN BREAK: D / D / D / D / part I 4X
D / D / D / D / E (let chord die and slide down the neck)
part I: 4X
resume jammage: A / D7 / A / D7 over and over
Break: open 6th string, then 2 hits on an E#9 chord (see below) done
twice. It's like an oom-pa-pa, with the open E being the "oom" and the
chords being the "pa-pa" 's.
[E#9]  
VI +-+-+-+-+-+
X
[+-+-+-+-+-+] X X
[+-+-+-+-+-+] X
[+-+-+-+-+-+]  
[+-+-+-+-+-+]  
[+-+-+-+-+-+]  
Resume jam; song finishes itself.
Later Bud,
PLEASE DO NOT EMAIL TO THE HEADER! MAIL TO mockud@rpi.edu
Sorry about using CAPS its just real important that you do not
mail to the header.
Darrell
 
 =-=-=-=-=-=-=-=-=-=-=-=-=-=-=-=-=-=-=-=-=-=-=-=-=-=-=-=-=-=-==-=-=-=-=-=-=

"You buy the land, you get the indians, and some of the indians
aren't that friendly." -- David Lee Roth
 
 =-=-=-=-=-=-=-=-=-=-=-=-=-=-=-=-=-=-=-=-=-=-=-=-=-=-=-=-=-=-==-=-=-=-=-=-=


Important: The song above is NOT stored on the Chordie server. The original song is hosted at tabfu.thudspace.net. Chordie works as a search engine and provides on-the-fly formatting. Chordie does not index songs against artists'/composers' will. To remove this song please click here.

Text color:
Chord color:
Chord grids: 
Font size:    
Page size: 

C D
Rate #1 of 7 versions

Jango Player

Login - add to songbook

SHARE PAGE  



You need to log in to post comments