Guitar Tabs, Chords and Lyrics
Server problems seems to be fixed. Chordie has been experiencing problems with songs disappearing. These issues now seems to be fixed, but still verifying the fix. If you find anything strange, please email admin@chordie.com.


Have a Cigar  Pink Floyd

- Have a Cigar -
as recorded on Pink Floyd's "Wish You Were Here"
written by: Roger Waters
tabbed by: Jeremy Joseph
(jeremyj@freenet.fsu.edu)
 
 ---------------------------------------------------------
 e:------------ ----------------------------------------------
 B:------------ ----------------------------------------------
 G:--X-X-X-X-\- ----------------------------------------------
 D:--X-X-X-X-\- ---2--------2-2---2-------2--------2-2---2----
 A:--X-X-X-X-\- ---2--------2-2---2-------2--------2-2---2----
 E:--X-X-X-7-\- -0---0-3--0-----3---3~--0---0-3--0-----3---3~- 

First guitar plays this riff throughout the intro
 
 e:---------------------------------------------------------
 B:---------------------------------------------------------
 G:---------------------------------------------------------
 D:---2---------2---2-----2---------2---------2--2-----2----
 A:---2---------2---2-----2---------2---------2--2-----2----
 E:-0---0-3--0---------3----3~---0-----0--3-0-------3----3~- 

Second guitar enters
 
 e:---------------------------------------------------------
 B:---------------------------------------------------------
 G:---------------------------------------------------------
 D:----------2--0-------------------------7b(9)-~~----------
 A:----------------2--1--0----------------------------------
 E:-------------------------3------------------------------- 

Keyboard plays along with this
[Em] [F#] [G] [C] [C] [G] [F#] [Em]  
 
 e:---------------------------------------------12-12--12-\-
 B:---------------------------------------------12-12--12---
 G:--0----2----3----5------5----3----2----0-----------------
 D:--2----4----5----5------5----5----4----2-----------------
 A:--2----4----5----3------3----5----4----2-----------------
 E:--------------------------------------------------------- 

[Em] [F#] [G] [C] [D]  
 
 e:---------------------------------------------------------
 B:---------------------------------------------------------
 G:--0----2----3---5-------7--------------------------------
 D:--2----4----5---5-------7-----5---4--2--0----------0-1-2-
 A:--2----4----5---3-------5------------------3---2-3-------
 E:---------------------------------------------------------
 e:--12b(14)~~----------------
 B:---------------------------
 G:---------------------------
 D:---------------------------
 A:---------------------------
 E:--------------------------- 

- Verse:
The rythm guitar for the verse uses the same riff from
the intro with double barre chords strummings in the middle:
(main riff)
Come in here dear boy have a cigar you're gonna go far
You're gonna fly high
Y[C]ou're never gonna die, y[D]ou're gonna make it if you try
(main riff)
They're gonna love you.
- Chorus:
And did we tell you the name of the game, boy,
[C] [D] [E] [C]  
 
 e:---------------------------------------------------------
 B:---------------------------------------------------------
 G:------------5-----------7------------9-----5-------------
 D:------------5-----------7------------9-----5-------------
 A:------------3-----------5------------7-----3-------------
 E:--------------------------------------------------------- 

We call it riding the gravy train. Yeah...
[D] [G] [C] [G]  
 
 e:---------------------------------------------------------
 B:---------------------------------------------------------
 G:------------7------------------------5-------------------
 D:------------7-----------5------------5------5------------
 A:------------5-----------5------------3------5------------
 E:------------------------3-------------------3------------ 

[G] [F#] [F] [Em]  
 
 e:---------------------------------------------------------
 B:---------------------------------------------------------
 G:-----------------0---------------------------------------
 D:--5--4----4--3---2---------------------------------------
 A:--5--4----4--3---2---------------------------------------
 E:--3--2----2--1---0--------------------------------------- 

- Lead Fills:
The following are fills played on the second guitar
with the words shown as markers for where they come in:
after "...you're gonna go far"
 
 e:---------------------------------------------------------
 B:---------------------------------------------------------
 G:---------------------------------------------------------
 D:-------------------------------7b(9)====(9)b(8)b(9)------
 A:---------------------------------------------------------
 E:--------------------------------------------------------- 

after "...they're gonna love you"
 
 e:-----------------------------------11b(12)-\-(11)--------
 B:-----------------------------------11b(12)-\-(11)--------
 G:---------------------------------------------------------
 D:------------------------------------------grad.----------
 A:------------------------------------------release--------
 E:--------------------------------------------------------- 

after "...I mean that most sincerely"
 
 e:--------------------------------------10-/-12---10~------
 B:--------------------------------------10-/-12---10~------
 G:---------------------------------------------------------
 D:---------------------------------------------------------
 A:---------------------------------------------------------
 E:--------------------------------------------------------- 

after "...which one's Pink?"
 
 e:---------------------------------10b(12)==12~~-----------
 B:---------------------------------------------------------
 G:---------------------------------------------------------
 D:---------------------------------------------------------
 A:---------------------------------------------------------
 E:--------------------------------------------------------- 

before "We're just..."
 
 e:--12h10------10b(12)-------------------------------------
 B:---------12----------------------------------------------
 G:---------------------------------------------------------
 D:---------------------------------------------------------
 A:---------------------------------------------------------
 E:--------------------------------------------------------- 

after "We're just knocked out"
 
 e:---------------------------------------------------------
 B:---------------------------------------------------------
 G:---------------------------------------------------------
 D:----------------------------------(9)b7--\-5-------------
 A:---------------------------------------------------------
 E:--------------------------------------------------------- 

after "...hot about the sound"
 
 e:---------------------------------------------------------
 B:---------------------------------------------------------
 G:---------------------------------------------------------
 D:--------------------------------7b(9)=(9)b7-\-5---7------
 A:---------------------------------------------------------
 E:--------------------------------------------------------- 

after "...we can hardly count"
 
 e:-----------------------------------11b(12)-\-(11)--------
 B:-----------------------------------11b(12)-\-(11)--------
 G:---------------------------------------------------------
 D:------------------------------------------grad.----------
 A:------------------------------------------release--------
 E:--------------------------------------------------------- 

after "...else is just green"
 
 e:---------------------------------10-/-12---10------------
 B:---------------------------------10-/-12---10------------
 G:---------------------------------------------------------
 D:---------------------------------------------------------
 A:---------------------------------------------------------
 E:--------------------------------------------------------- 

after "..together as a team"
 
 e:---------------------------------------------------------
 B:---------------------------------------------------------
 G:--------------------------------(9)b7-\--5---------------
 D:---------------------------------------------------------
 A:---------------------------------------------------------
 E:--------------------------------------------------------- 

Solo:
 
 e:-10b(12)--10---------------------------------------------
 B:-------------10b(12)b10---8b(10)=(10)b8------------------
 G:---------------------------------------------------------
 D:---------------------------------------------------------
 A:---------------------------------------------------------
 E:---------------------------------------------------------
 e:----------12h15h12--15b(17)--17b(19)=(19)==(19)--15b(16)-
 B:-15b(17)-------------------------------------------------
 G:---------------------------------------------------------
 D:---------------------------------------------------------
 A:---------------------------------------------------------
 E:---------------------------------------------------------
 e:--15-15h12-----------------------------------------------
 B:------------15--15--15b(17)------------------------------
 G:-----------------------------14b(15)==(15)b14-\--7--9----
 D:---------------------------------------------------------
 A:---------------------------------------------------------
 E:--------------------------------------------------------- 

It goes on with similar scales which is very monotonous
and frustrating to tab all of, so listen to the album
and ad-lib, I give up on it!
Date: Mon, 25 Sep 1995 16:45:41 -0500
From: Jonathan
Pink Floyd
 
 ----------

Have A Cigar
by Roger Waters
from the 1975 release, Wish You Were Here
transcribed by Jonathan
Notes:
X = muted / = slide up \ = slide down or dive B = bend (n)B = pre-bend
R = release H = hammer-on P = pull-off ~~ = vibrate PM = palm mute
gtr 1 (w/phaser)
Rhy. Fig. 1 end Rhy. Fig. 1
 
 --------------- ------------------------- ------------------------
 --------------- ------------------------- ------------------------
 ----X\X\X\X\X\- ------------------------- ------------------------
 ----X\X\X\X\X\- ----2--------2--------2-- ---2--------2-----------
 ----X\X\X\X\X\- ----2--------2--------2-- ---2--------2-----------
 ----X\X\X\X\X\- -0-----0--3B------------- ------3--0-----3~~~~~~~- 

Rhy. Fig. 2 end Rhy. Fig. 2 w/Rhy. Fig. 1
 
 ------------------------- -------------------------- ------------------
 ------------------------- -------------------------- ------------------
 ------------------------- -------------------------- ------------------
 ----2--------2--------2-- ---2--------2----X\X\X\X\- ------------------
 ----2--------2--------2-- ---2--------2----X\X\X\X\- ------------------
 -0-----0--3B------------- ------3--0-------X\X\X\X\- ------------------ 

gtr 2
 
 -------------------- ------------------------- ------------------------
 -------------------- ------------------------- ------------------------
 -------------------- ------------------------- ------------------------
 -------------------- ------------------------- ------------------------
 -------------------- ---------------------/7-- ---5--------------------
 -------------------- ------------------------- ------7--6--5--3~~~~~~~- 

gtr 1
 
 -------------------- ------------------------- ------------------------
 -------------------- ------------------------- ------------------------
 -------------------- ------------------------- ------------------------
 -------------------- ----2--------2--------2-- ---0--------------------
 -------------------- ----2--------2----------- ------2--1--0-----------
 -------------------- -0-----0--3B------------- ---------------3~~~~~~~- 

w/bar
 
 -------------------- ------------------------ -------------------------
 -------------------- ------------------------ -------------------------
 -----------------2B- (4)------------~~~~~~~~~ ~~~\---------------------
 -------------------- ------------------------ -------------------------
 -------------------- ------------------------ -------------------------
 -------------------- ------------------------ -------------------------
 w/Rhy. Fig 1 Rhy. Fig. 3-------------]
 -------------------- ------------------------ -------------------------
 -------------------- ------------------------ -------------------------
 -------------------- ------------------------ -------------------------
 -------------------- ------------------------ ----2--------2-----------
 -------------------- ------------------------ ----2--------2-----------
 -------------------- ------------------------ -0-----0--3B-------------
 --------------------------------- ---------------------------------
 --------------------------------- ---------------------------------
 --------------------------------- ---------------------------------
 --------------------------------- ---------------------------------
 -7-----------9-----------10------ ---------------------------------
 --------------------------------- -8------------------------------- 

Rhy. Fig. 4
 
 --------------------------------- ---------------------------------
 --------------------------------- -----------------5---------------
 --------------------------------- -----------------5---------------
 -2-----------4-----------5------- -----------------5-----------4---
 --------------------------------- -3---------------3-----------2---
 --------------------------------- --------------------------------- 

gtr 1
 
 --------------------------------- ---------------------------------
 -----5-----------5---5-------5--- ----^------------5---------------
 -----5-----------5---5-------5--- -4--/5-----------5-------5-------
 -4---5-----------5---5-------5--- -4--/5-------5---5-------5-------
 -2---3-----------3---3----------- -2--/3-----------3-------3-------
 --------------------------------- --------------------------------- 

gtr 2
 
 --------------------------------- -------------------------------------
 --------------------------------- -------------------------12-12-12-12-
 --------------------------------- -------------------------12-12-12-12-
 --------------------------------- -2-----------------------------------
 -------------10----------9---\--- -------------------------------------
 -8------------------------------- ------------------------------------- 

gtr 1 end Rhy. Fig. 4 w/Rhy. Fig 1
 
 --------------------------------- -------------------------------------
 --------------------------------- -------------------------------------
 --------------------------------- -------------------------------------
 -------------5-----------4------- -------------------------------------
 -3------------------------------- -------------------------------------
 --------------------------------- ------------------------------------- 

gtr 2 w/Rhy. Fig. 3
 
 --------------------------------- ---------------------------------
 -12--\--------------------------- ---------------------------------
 -12--\--------------------------- ---------------------------------
 --------------------------------- ---------------------------------
 --------------------------------- ---------------------------------
 --------------------------------- --------------------------------- 

gtr 2
 
 --------------------------------- ---------------------------------
 --------------------------------- ---------------------------------
 --------------------------------- ---------------------------------
 --------------------------------- ---------------------------------
 -7-----------9-----------10------ ---------------------------------
 --------------------------------- -8------------------------------- 

gtr 1
Rhy. Fig. 5
 
 --------------------------------- ---------------------------------
 --------------------------------- -----------------5-----------5---
 --------------------------------- -----------------5-----------5---
 -2-----------4-----------5------- -----------------5-----------5---
 --------------------------------- -3---------------3---------------
 --------------------------------- ---------------------------------
 --------------------------------- ---------------------------------
 --------------------------------- ---------------------------------
 ------------(9)B(12)-----R------- (9)------------------------------
 --------------------------------- ---------------------------------
 --------------------------------- ---------------------------------
 --------------------------------- ---------------------------------
 --------------------------------- ---------------------------------
 -----------------5---5-------5--- -5---------------5---------------
 -----------------5---5-------5--- -5-----------5---5---------------
 -----------------5---5-------5--- -5-----------5---5---------------
 ---------3---3------------------- -3-------3-------3---------------
 --------------------------------- --------------------------------- 

PM--)
 
 --------------------------------- ---------------------------------
 --------------------------------- ---------------------------------
 --------------------------------- ---------------------------------
 -0------------------------------- ---------------------------------
 --------------------------------- -10----------9-----------7-------
 --------------------------------- ---------------------------------
 --------------------------------- ---------------------------------
 ---------------------7----------- ---------------------------------
 ---------------------7----------- ---------------------------------
 ---------------------7----------- -5-----------4-------------------
 -5------------------------------- -------------------------7-------
 --------------------------------- ---------------------------------
 --------------------------------------- -------------------------------
 --------------------------------------- -------------------------------
 --------------------------------------- -------------------------------
 --------------------------------------- -------------------------------
 --------------------------------------- -7~~~~~~~~~~~~~~~~~~~~~--------
 -----10--------9-------8---9---10--11-- ------------------------------- 

end Rhy. Fig. 5 w/Rhy. Fig. 1
 
 --------------------------------------- -------------------------------
 --------------------------------------- -------------------------------
 --------------------------------------- -------------------------------
 --------------------------------------- -------------------------------
 -----5---------4-------3---4---5---6--- -------------------------------
 --------------------------------------- ------------------------------- 

gtr 2 w/bar w/Rhy. Fig. 2
 
 --------------------------------- ---------------------------------
 --------------------------------- ---------------------------------
 ---------------------19B(21)~~~~~ ~~~~~~~~~~~~~~~~~~~~~~~~~~~~~\---
 --------------------------------- ---------------------------------
 --------------------------------- ---------------------------------
 --------------------------------- --------------------------------- 

w/Rhy. Fig. 1 (2x)
 
 --------------------------------- ---------------------------------
 --------------------------------- --------------------------------- 

Come in here, dear boy,
w/bar
 
 --------------------------------- ---------------------------------
 --------------------------------- ---------------------------------
 --------------------------------- --------------2B(4)~~~~~~~~~~~~~~
 --------------------------------- ---------------------------------
 --------------------------------- ---------------------------------
 --------------------------------- --------------------------------- 

have a ci - gar, you're gon-na go far.
gtr 2
 
 --------------------------------- ---------------------------------
 --------------------------------- ---------------------------------
 ~~~~~~~~~~~~~~~~~~~~~\----------- ---------------------------------
 --------------------------------- ---------------------------------
 --------------------------------- ---------------------------------
 --------------------------------- --------------------------------- 

gtr 1
 
 --------------------------------- ---------------------------------
 --------------------------------- ---------------------------------
 --------------------------------- ---------------------------------
 --------------------------------- -----2-----------2-----------2---
 --------------------------------- -----2-----------2-----------2---
 --------------------------------- -0-------0---3B------------------ 

You're gon - na fly high, you're
gtr 1
Rhy. Fig. 6 end Rhy. Fig. 6
 
 --------------------------------- ---------------------------------
 -----------------1--------------- -----------------3---------------
 -------------0------------------- -------------0-------0-----------
 ---------2-----------0-------0--- ---------4---------------4-------
 -3-----------------------2------- -5-------------------------------
 --------------------------------- --------------------------------- 

never gonna die, you're gon - na make it if you try, they're gonna
gtr 2
w/Rhy. Fig. 1 (4x)
 
 --------------------------------- ---------------------------------
 -------------15------------------ ---------------------------------
 -------(14)B(15)--------R-------- (14)-----------------------------
 --------------------------------- ---------------------------------
 --------------------------------- ---------------------------------
 --------------------------------- --------------------------------- 

love you.
 
 --------------------------------- ---------------------------------
 --------------------------------- --------------------------------- 

Well, I've
 
 --------------------------------- ----------------------------^----
 --------------------------------- -------------------------12-/14--
 --------------------------------- -------------------------12-/14--
 --------------------------------- ---------------------------------
 --------------------------------- ---------------------------------
 --------------------------------- --------------------------------- 

always had a deep respect, and I mean that most sin - cere -
w/bar
 
 --------------------------------- ---------------------------------
 -12~~~~~~~~~~~~~~---------------- ---------------------------------
 -12~~~~~~~~~~~~~~---------------- ------------------2B(4)----------
 --------------------------------- ---------------------------------
 --------------------------------- ---------------------------------
 --------------------------------- --------------------------------- 

ly. The
w/Rhy. Fig. 3 w/Rhy. Fig. 6
 
 --------------------------------- ---------------------------------
 --------------------------------- ---------------------------------
 ---R(2)-------------------------- ---------------------------------
 --------------------------------- ---------------------------------
 --------------------------------- ---------------------------------
 --------------------------------- --------------------------------- 

band is just fantastic, that is really what I think. Oh,
w/Rhy. Fig. 1 (2x)
 
 --------------------------------- -------------------------------------
 --------------------------------- ---------------------15B(17)-15B(17)~
 --------------------------------- -------------------------------------
 --------------------------------- -------------------------------------
 --------------------------------- -------------------------------------
 --------------------------------- ------------------------------------- 

by the way, which one's Pink?
 
 --------------------------------- ---------------------------------
 ~~~~~~~~~~~~~~~~~~~R(15)--------- ---------------------------------
 --------------------------------- ---------------------------------
 --------------------------------- ---------------------------------
 --------------------------------- ---------------------------------
 --------------------------------- --------------------------------- 

gtr 1 Rhy. Fig. 7
 
 ---------------------------- -0-------X---0-----------0---------------
 ---------------------------- -1-------X---3-----------0---------------
 ---------------------------- -0-------X---0-----------0---------------
 ---------------------------- -2-------X---4-----------2---------------
 ---------------------------- -3-------X---5-----------2---------------
 ---------------------------- -------------------------0--------------- 

And if we tell you the name of the game,
 
 -0---------------------0--0-- -----0---0-------2---2---2---2-------2---
 -1---------------------1--1-- -----1---1-------3---3---3---3-------3---
 -0---------------------0--0-- -----0---0-------2---2---2---2-------2---
 -2---------------------2--2-- -----2---2-------0---0---0---0-------0---
 -3---------------------3--3-- -----3---3-------------------------------
 ----------------------------- ----------------------------------------- 

boy, we call it "riding the gra - vy
 
 --------------------------------- ---------------------------------
 -0------------------------------- ---------------------------------
 -0------------------------------- ---------------------------------
 -0------------------------------- ---------------------------------
 -2------------------------------- ---------------------5---5-------
 -3------------------------------- -------------3--/7--------------- 

train."
 
 --------------------------------- ---------------------------------
 -------------------------X------- ---------------------X---5\------
 -------------------------X---5--- -5-----------5-------X---5\------
 ----5--------------------X---5--- -5-----------5-------X---5\------
 (5)H7--------------------X------- -5H7-----7-----------------------
 --------------------------------- --------------------------------- 

end Rhy. Fig. 7
 
 --------------------------------- -3---2-----------2---1-----------
 -0------------------------------- -3---2-----------2---1-----------
 -0---------------0--------------- -4---3-----------3---2-----------
 -0---------------0--------------- -5---4-----------4---3---X-X-X\--
 -2---------------2--------------- -5---4-----------4---3---X-X-X\--
 -3-------3-------3--------------- -3---2-----------2---1---X-X-X\-- 

w/Rhy. Fig. 1 (4x)
 
 --------------------------------- ---------------------------------
 --------------------------------- --------------------------------- 

gtr 2
 
 ------------------------------------------------ ---------------------
 -------------------------------X15B(17)R(15)P12- 15B(17)~~~~~---------
 ------------------------------------------------ ---------------------
 ------------------------------------------------ ---------------------
 ------------------------------------------------ ---------------------
 ------------------------------------------------ --------------------- 

We're__
 
 --------------------------------- -------------------------------------
 --------------------------------- -------------------------------------
 --------------------------------- ---------------------(2)B(4)R(2)P0---
 --------------------------------- -------------------------------------
 --------------------------------- -------------------------------------
 --------------------------------- ------------------------------------- 

_____ just knocked out. We
 
 --------------------------------- -------------------------------------
 --------------------------------- -------------------------------------
 --------------------------------- ------2B(4)R(2)B(4)R(2)P0-2B(4)------
 --------------------------------- -------------------------------------
 --------------------------------- -------------------------------------
 --------------------------------- ------------------------------------- 

heard about the sell - out. You've
w/Rhy. Fig. 3 w/Ryh. Fig. 6
 
 --------------------------------- ---------------------------------
 --------------------------------- --------------------------------- 

gotta get an album out, you owe it to the people. We're
w/Rhy. Fig. 1 (4x)
 
 --------------------------------- -------------------------------------
 --------------------------------- -----------15------------------------
 --------------------------------- ------(14)B(16)-----------R(14)------
 --------------------------------- -------------------------------------
 --------------------------------- -------------------------------------
 --------------------------------- ------------------------------------- 

so happy, we can hard - ly count.
 
 --------------------------------- ---------------------------------
 --------------------------------- ---------------------------------
 --------------------------------- ---------------------------------
 --------------------------------- --------------------------------- 

Ev'rybody else is just green_____
 
 ------------------------^--^----- ---------------------------------
 --------------------(12)/14\12--- ---------------------------------
 --------------------(12)/14\12--- ---------------------------------
 --------------------------------- ---------------------------------
 --------------------------------- ---------------------------------
 --------------------------------- --------------------------------- 

_________________. Have_____ you seen the chart?
w/Rhy. Fig.3
 
 --------------------------------- ---------------------------------
 --------------------------------- --------------------------------- 

It's a helluva start, it could be
w/Rhy. Fig. 6
 
 --------------------------------- ---------------------------------
 --------------------------------- --------------------------------- 

made into a monster, if we all pull together as a
w/Rhy. Fig. 1 (2x)
 
 --------------------------------- --------------------------------------
 --------------------------------- --------------------------------------
 --------------------------------- ----------------------(2)B(4)R(2)P0---
 --------------------------------- --------------------------------------
 --------------------------------- --------------------------------------
 --------------------------------- -------------------------------------- 

team.
 
 --------------------------------- ---------------------------------
 --------------------------------- --------------------------------- 

And if we
w/Rhy. Fig. 7
 
 ----------------------------------------- -----------------------------
 ----------------------------------------- ----------------------------- 

tell you the name of the game, boy,
gtr 1 begins slight ad lib
 
 ----------------------------------------- -----------------------------
 ----------------------------------------- ----------------------------- 

we call it "riding the gra - vy train."
 
 --------------------------------- ---------------------------------
 --------------------------------- ---------------------------------
 --------------------------------- ---------------------------------
 --------------------------------- --------------------------------- 

w/Rhy. Fig. 1 (7 1/2x)
 
 --------------------------------- ---------------------------------
 ---------------------15B(17)----- -----------------~~~~~~~~~~~~~~~~
 --------------------------------- ---------------------------------
 --------------------------------- ---------------------------------
 --------------------------------- ---------------------------------
 --------------------------------- ---------------------------------
 ----------------------------------- -----------------------------------
 -----15B(17)---15----12------------ -----------------------------------
 -----------------------(14)B(16)--- --(12)B(14)R(12)~~~~~~~~~~~~~~~~~~~
 ----------------------------------- -----------------------------------
 ----------------------------------- -----------------------------------
 ----------------------------------- -----------------------------------
 ------------------------12H15P12- -15~~~~~~-------17B(19)---(19)---
 ---15B(17)~~~~~~~---------------- ---------------------------------
 --------------------------------- ---------------------------------
 --------------------------------- ---------------------------------
 --------------------------------- ---------------------------------
 --------------------------------- ---------------------------------
 -(19)------15B(17)-R(15)-15--14-- -14--------------------------------
 --------------------------------- ----15~~15~~12-15-----15B(17)-R(15)
 --------------------------------- -----------------------------------
 --------------------------------- -----------------------------------
 --------------------------------- -----------------------------------
 --------------------------------- -----------------------------------
 --------------------------------- ---------------------------------
 P12------------------------------ -------------------14-14--14-14--
 -------(14)B(15)R(14)----14--12B- --------12---------14-14--14-14--
 --------------------------------- ---14----------------------------
 --------------------------------- ---------------------------------
 --------------------------------- ---------------------------------
 --------------------------------- -------------------------------
 -14--12-------------------------- ----12--12--12---12---12-------
 -14--12-------------------------- ----12--12--12---12---12-------
 ---------X-14--------^--------^-- --------------12---12--(12)H14~
 ---------X------14P12\10-12-12/14 -------------------------------
 --------------------------------- -------------------------------
 ---------------12----12--- ---------12-------------12-12-------12------
 -----0----12-12---12-12--- -15B(17)---15B(17)R(15)------15B(16)--------
 -------------------------- -----------------------------15B(16)--------
 ~~~~~--------------------- --------------------------------------------
 -------------------------- --------------------------------------------
 -------------------------- --------------------------------------------
 ----------12-15-15-------15B(17)- --R-(15)-----14--14--------------
 ---15B(17)------------12--------- -------------------15----15~~~~~~
 --------------------------------- ---------------------------------
 --------------------------------- ---------------------------------
 --------------------------------- ---------------------------------
 --------------------------------- --------------------------------- 

w/Rhy. Fig. 4
 
 -----19B(21)------R-(19)-19--18-- -17--16--------------------------
 -----19B(20)------R-(19)--------- -------17-17~~~~~17B(19)~~~~~~~~~
 --------------------------------- ---------------------------------
 --------------------------------- ---------------------------------
 --------------------------------- ---------------------------------
 --------------------------------- ---------------------------------
 -------------12-12------------------- ---------------------------------
 ---------------------15-------------- ---------------------------------
 -----14B(16)-----------(14)B(16)R(14) -----14--12----------------------
 ------------------------------------- -----------------14-------^------
 ------------------------------------- ------------------------14\12-10-
 ------------------------------------- --------------------------------- 

w/Rhy. Fig. 1
 
 --------------------------------- ---------------------------------
 -----------------12--X-12--X-12-- -X-12--X-12--X-12--X-12X-X-12--X-
 -----------------12--X-12--X-12-- -X-12--X-12--X-12--X-12X-X-12--X-
 ----^---------------------------- ---------------------------------
 (12)/14~~~~~~~~~~---------------- ---------------------------------
 --------------------------------- --------------------------------- 

w/Rhy. Fig. 3
 
 ------------------------------------- -----------------------12--------
 -12--X-12--X-12X-X-12X-X-12/14-14---- -14\12-12--X-12--X-12----12--X---
 -12--X-12--X-12X-X-12X-X-12/14-14---- -14\12-12--X-12--X-12----12--X---
 ------------------------------------- ---------------------------------
 ------------------------------------- ---------------------------------
 ------------------------------------- --------------------------------- 

w/Rhy. Fig. 5
 
 ----------12------------------------- -----------------------------12--
 --------12---15---------------------- ---------12--------15B(17)-------
 -14B(16)-------(14)B(16)R(14)--14-12B ---------12----------------------
 ------------------------------------- -14------------------------------
 ------------------------------------- ---------------------------------
 ------------------------------------- ---------------------------------
 ---------------------------12---- -15P-14--15---------14---(14)B(15)---
 (15)B(17)~~~~~~~~---15B(17)------ -------------------------------------
 --------------------------------- -------------------------------------
 --------------------------------- -------------------------------------
 --------------------------------- -------------------------------------
 --------------------------------- -------------------------------------
 -R(14)---------------12---------- ----------------------------------
 ---------------------------15---- 15B(17)--15-----------------------
 --------------------------------- -------------14B(16)--14--12~~~~~~
 --------------------------------- ----------------------------------
 --------------------------------- ----------------------------------
 --------------------------------- ----------------------------------
 -----------------------------------------------------------------------
 -----------------------------------------------------------------------
 ~~~~~~~~~~~~~~~~~~~~~~~~~~~~14B(16)---R(14)B(16)---R(14)B(16)R(14)P12--
 -----------------------------------------------------------------------
 -----------------------------------------------------------------------
 ----------------------------------------------------------------------- 

w/Rhy. Fig. 1 (3x)
 
 --------------------------------- ---------------------------------
 --------------------------------- ---------12------X---12--X-12X---
 -14--12-------------------------- ---------12------X---12--X-12X---
 ---------14~~~~~~~~~~~~~~~~~~~~~~ ~~~~~~~~~------------------------
 --------------------------------- ---------------------------------
 --------------------------------- ---------------------------------
 --------------------------------- -12------------------------------
 -14----12B----------------------- -----15--------------------------
 -14----12B---------------14B(16)- ---------14B(16)--14-----14--12--
 -14----12B----------------------- ---------------------------------
 --------------------------------- ---------------------------------
 --------------------------------- ---------------------------------
 -----------------------------12- -----------------------17B(19)--R(17)-
 --------------------------12---- ---15B(17)~~~~~~~~~~15----------------
 ---------12--------14B(16)------ --------------------------------------
 -X-14~~~~----------------------- --------------------------------------
 -------------------------------- --------------------------------------
 -------------------------------- -------------------------------------- 

w/Rhy. Fig. 3
 
 B(19)---R(17)-B(19)---R(17)-17B(19)---R(17)-B(19)--R(18)-(18)--R(17)-
 ---------------------------------------------------------------------
 ---------------------------------------------------------------------
 ---------------------------------------------------------------------
 ---------------------------------------------------------------------
 --------------------------------------------------------------------- 

w/Rhy. Fig. 4
 
 -15------------------------------ ---------------------------------
 ---17---17~~~~~~~~~~~~17B(20)~~~~ ~~~~~~~~~~~~~17B(20)~~~~~~~~~~~~~
 --------------------------------- ---------------------------------
 --------------------------------- ---------------------------------
 --------------------------------- ---------------------------------
 --------------------------------- ---------------------------------
 -------------------------------------------- --------------------------
 R(17)-17B(20)---(20)-(20)----R(17)-17B(20)~~ ~~~~-17B(20)--(20)--(20)--
 -------------------------------------------- --------------------------
 -------------------------------------------- --------------------------
 -------------------------------------------- --------------------------
 -------------------------------------------- -------------------------- 

w/Rhy. Fig. 1
 
 --------------------------------- ---------------12----------------
 -(20)R(17)(15)H17~~~~~~~--^------ -------------X-12--X-12--X-12----
 ------------------------14\12-14B (16)--R-(14)-X-----X-12--X-12--12
 --------------------------------- ---------------------------------
 --------------------------------- ---------------------------------
 --------------------------------- --------------------------------- 

w/Rhy. Fig. 3
 
 -------12----------12---------^------ ---^-----------------------------
 -12----12X-X-12X-X-12-12----12/14---- -14\12-12----12--X-12X-X-12------
 -12--12--X-X-12X-X----12-12-12/14---- -14\12-12----12--X-12X-X-12--12--
 ------------------------------------- ---------------------------------
 ------------------------------------- ---------------------------------
 ------------------------------------- --------------------------------- 

w/Rhy. Fig. 5
 
 ---------------------------------------------------------------------
 -------------12-----17P12-15P12--------------------------------------
 -14B(16)----------------------------14B(16)-----14-----12B(14)-------
 ---------------------------------------------------------------------
 ---------------------------------------------------------------------
 ---------------------------------------------------------------------
 --------------------------------- ---------------------------------
 --------------------------------- ---------------------------------
 -12~~~~~~~~~~~~~~~~~~11---------- ---------------------------11----
 ---------------------------12---- -12~~~~~~~~~~~~~~~~~~10----------
 --------------------------------- ---------------------------------
 --------------------------------- --------------------------------- 

fade
 
 --------------------------------- ---------------------------------
 --------------------------------- ---------------------------------
 -11B(12)R(11)-------------------- ----^----------------------------
 --------------10~~~~~~~~~~~------ (10)/12~~~~~~~~~~~~~~~~~~X-------
 --------------------------------- ---------------------------------
 --------------------------------- --------------------------------- 

fade to right channel
 
 --------------------------- -----------------------------------------
 -15B(17)-R-(15)------------ -----------------------------------------
 ------------------14B(16)-- -(16)R(14)P12--14B(16)--(16)R(14)P12-----
 --------------------------- -------------------------------------14~~
 --------------------------- -----------------------------------------
 --------------------------- ----------------------------------------- 

w/Rhy. Fig. 1 (2x)
 
 --------------------------------- ---------------------15P12-15----
 ----------------------15B(17)---- ---------------------------------
 --------------------------------- ---------------------------------
 ~~~~~~~~~~~~~~~~~~~~~~----------- ---------------------------------
 --------------------------------- ---------------------------------
 --------------------------------- ---------------------------------
 -15B(17)--R--(15)---------------- ------15---15---15---15---15B(17)---
 --------------------------------- ------------------------------------
 --------------------------------- ------------------------------------
 --------------------------------- ------------------------------------
 --------------------------------- ------------------------------------
 --------------------------------- ------------------------------------ 

gtr 2
radio sound effects approx. 16 sec.
 
 --15-----------------------------------
 ---------------------------------------
 ---------------------------------------
 ---------------------------------------
 ---------------------------------------
 --------------------------------------- 

gtr 1
 
 ---------------------------------------
 ---------------------------------------
 ---------------------------------------
 ---------------------------------------
 ---------------------------------------
 -0------------------------------------- 


Important: The song above is NOT stored on the Chordie server. The original song is hosted at tabfu.thudspace.net. Chordie works as a search engine and provides on-the-fly formatting. Chordie does not index songs against artists'/composers' will. To remove this song please click here.

Text color:
Chord color:
Chord grids: 
Font size:    
Page size: 

C D E Em F F# G
Rate #4 of 5 versions

Jango Player

Login - add to songbook

SHARE PAGE  



You need to log in to post comments