Guitar Tabs, Chords and Lyrics
Server problems seems to be fixed. Chordie has been experiencing problems with songs disappearing. These issues now seems to be fixed, but still verifying the fix. If you find anything strange, please email admin@chordie.com.


Time  Pink Floyd

Time
by Pink Floyd
from The Dark Side Of The Moon
tabbed by jamesb@nevada.edu
Intro:
 
 ----------------------------------------
 ----------------------------------------
 ----------------------------------------
 ----------------------------------------
 ----------------------------------------
 ---0------------------------------------
 ----------------------------------------
 ----------------------------------------
 ----------------------------------------
 ----------------------------------------
 ----------------------------------------
 ---2------------------------------------
 ----------------------------------------
 ----------------------------------------
 ----------------------------------------
 ----------------------------------------
 ----------------------------------------
 ---0------------------------------------
 ----------------------------------------
 ----------------------------------------
 ----------------------------------------
 ----------------------------------------
 ----------------------------------------
 ---2------------------------------------
 ----------------------------------------
 ----------------------------------------
 ----------------------------------------
 ----------------------------------------
 ----------------------------------------
 ---0------------------------------------
 ----------------------------------------
 ----------------------------------------
 ----------------------------------------
 ----------------------------------------
 ----------------------------------------
 --0--1--2-------------------------------
 ----------------------------------------
 ----------------------------------------
 ----------------------------------------
 ----------------------------------------
 ----------------------------------------
 ---0------------------------------------
 ----------------------------------------
 ----------------------------------------
 ----------------------------------------
 --------------------------2-------------
 --------------------2-------------------
 --0--1--2------------------------2------
 ----------------------------------------
 ----------------------------------------
 ----------------------------------------
 ----------------------------------------
 ----------------------------------------
 ---2------------------2-----------------
 --------------------------"12-----------
 ----------------------------------------
 ----------------------------------------
 ----------------------------------------
 ---0------------------------------------
 ----------------------------------------
 ----------------------------------------
 ----------------------------------------
 ----------------------------------------
 ----------------------------------------
 ----------------------------------------
 --2>(3)--2--0---------------------------
 ---"12----------------------------------
 ----------------------------------------
 ----------------------------------------
 ----------------------------------------
 ----------------------------------------
 ----------------------------------------
 ----------------------------------------
 ----------------------------------------
 ----------------------------------------
 ----------------------------------------
 ----------------------------------------
 --0--1--2-------------------------------

Verse;
I just put the chords in for the verse. You'll have to listen to the
album to get the rythem. I also put the leads at the bottom. Just put the
appropriate lead in at the letter.
[F#M]Ticking away, the moments that make up a d[A]ull day[Asus4] [A]
lead A
[E]You fritter and wasste the hours in an offhand way[F#m]
lead B
Kicking around on a piece of ground in your h[A]ome town
[E]Waiting for someone or something to show you the way[F#m].
[Dmaj7]Tired of lying in the sunshine, [Amaj7]staying home to watch the rain,
[Dmaj7]You are young, and life is long,[Amaj7] and there is time to kill today,
[Dmaj7]And then one day you find, t[C#m7]en years have got behind you
[Bm7]No one told you where to run, [E]you missed the starting gun.
(insert solo)
lead c
[(E)]And you[F#m] run, and you run to catch up to the sun, but it's sink[A]ing,
E F#m lead D
And racing around, to come up behind you again
lead E
[E]The sun is the same in a relative way, but your old[A]er,[Asus4] [A]
[E]Shorter of breath, and one day closer to death.[F#m]
[Dmaj7]Every year is getting shorter, n[Amaj7]ever seem to find the time
[Dmaj7]Plans that either come to naught,[Amaj7] or half a page of scribbled lines
[Dmaj7]Hanging on in quite desperation [C#m]is the english way,
[Bm]The time is gone, the song is over thought I'[Bm7]d something [F]more to say.
leads
[A]  
 
 --------------------------------------
 ----2----------2--------2-------------
 ---4>(6)======(6)=4--2--2-------------
 ----------------------------2vvvvv----
 --------------------------------------
 --------------------------------------

[B]  
 
 ---7/9--9--9\7--7\---
 ---------------------
 ---7/9--9--9\7--7\---
 ---------------------
 ---------------------
 ---------------------

[C]  
 
 ------------------
 ---7---5---3---2--
 ------------------
 ---7---5---4---2--
 ------------------
 ------------------

[D]  
 
 -----------------------------------------------
 ---2-------------------------------------------
 --4>(6)------4>(6)>4>2-----2-------------------
 ------------------------4------2-vvvvvvvvvvv---
 -----------------------------------------------
 -----------------------------------------------

[E]  
 
 -----------------------
 ----10---12----10------
 ----0-----0-----0------
 ----11---12----11------
 -----------------------
 -----------------------

solo
Use same chords as verse and chorus
 
 --------------------------------------------------------------------------
 --------------------------------------------------------------------------
 ---------------------------------4>(6)======>(5)===>(6)vvvvvvvv>(5)>(6)---
 ----2>4vvvvvvvvvvvvvvvv---------------------------------------------------
 --------------------------------------------------------------------------
 --------------------------------------------------------------------------
 -------------------------------------------------
 -------------------------------------------------
 ---4<(6)=======>4>2---4>(6)--4vvvvvvvvvvvvvvv----
 -------------------------------------------------
 -------------------------------------------------
 -------------------------------------------------
 ---------------------------------------------5>(6)----------------
 ------------------------------5-5>7>5>7>5>7------------7vvvvvv----
 ------------------------/6----------------------------------------
 --4<(6)====>4vvvvvv-----------------------------------------------
 ------------------------------------------------------------------
 ------------------------------------------------------------------
 ---------------------------------------------9--9---9--9>(10)======>9--
 -----------------------------------------------------------------------
 ---4>(6)==========>4>2-----4>(6)------6/9----9--9---9------------------
 -----------------------------------------------------------------------
 -----------------------------------------------------------------------
 -----------------------------------------------------------------------
 -------------------------------------------------------------------------------
 --10>(12)==========>10----9vvvvvvv--9>(10)=====>9------------------------------
 -----------------------------------------------------9>(10)==>(11)==========>9-
 -------------------------------------------------------------------------------
 -------------------------------------------------------------------------------
 -------------------------------------------------------------------------------
 ----------------------------------17----------------------------------
 ----------14---17>(19)----17>(19)-----17>(19)==========>17---17>(19)--
 ------14--------------------------------------------------------------
 --/16-----------------------------------------------------------------
 ----------------------------------------------------------------------
 ----------------------------------------------------------------------
 --------------------------------------------------------------------------
 --17----------------------------------------------------------------------
 -------16>(18)vvvvvvv--16>(19)>16>(18)vvvv---16>(18)==========>16vvvvvvv--
 --------------------------------------------------------------------------
 --------------------------------------------------------------------------
 --------------------------------------------------------------------------
 --------------------------------------------------17>(19)-----17>(19)=====>17-
 --------15--15---14>(15)>14-------------------14------------------------------
 ----16------------------------14----------------------------------------------
 ----------------------------------16vvvvvvv-----------------------------------
 ------------------------------------------------------------------------------
 ------------------------------------------------------------------------------
 ----------------------------------------------------------------------------
 ----17>(19)vvvvvvvvvvvvv----(19)>17--17vvvv---------------------------------
 ----------------------------------------------(17)>16>14--14---16>(18)vvvv--
 ----------------------------------------------------------------------------
 ----------------------------------------------------------------------------
 ----------------------------------------------------------------------------
 ---19>(21)===>19--19>(21)=====>19--19vvvvvvv----
 ------------------------------------------------
 ------------------------------------------------
 ------------------------------------------------
 ------------------------------------------------
 ------------------------------------------------
 ---16------------------------------------------------------
 -------17--------17/19vvvvvv---17>19>17---17\14vvvvvvvvv\--
 -----------16----------------------------------------------
 -----------------------------------------------------------
 -----------------------------------------------------------
 -----------------------------------------------------------

This begins where the rythem changes to the progression that plays over the
chorus(begins with Dmaj7)
 
 ----------------------------------------------------------
 ----------7---10/12--10vvvvv---9--10---9>10>9>7\5vvvvvv---
 -----2/7--------------------------------------------------
 --4-------------------------------------------------------
 ----------------------------------------------------------
 ----------------------------------------------------------
 -------------------------------------------------------------
 --7/9---9----7\5-----5\2/5-----2---2-------------------------
 ----------------------------------4>(6)======vvvv>4--4>(7)---
 -------------------------------------------------------------
 -------------------------------------------------------------
 -------------------------------------------------------------
 -------------------------------------------------------------------
 -------------------------------------------------------------------
 --(6)======>4--------(6)========>4>2>4>2vvvvvv--4>(6)=========>4---
 -------------------------------------------------------------------
 -------------------------------------------------------------------
 -------------------------------------------------------------------
 -------------------------------------------------------------------
 -------------------------------------------------------------------
 ----4vvvvvvvvvvvv-----2vvvvvvvvvvvv--------4-----------------------
 --------------------------------------4/6-------6\4--2vvvvvvv------
 -------------------------------------------------------------------
 ----------------------------------------------------------------0--

note that most of the sustained bends are actually gradual releases.
Listen to the son gto find out which of these bend are gradualy released.
===============================================================================
 
 legato -----4>6>4-----
 bend -----4>(6)-----

up to fret indicated in
parenthesis
hold bend --4>(6)===>(4)-
 
 pre bend ---(6)>4------
 slide ---4/6-6\4----

vibrato ---4vvvvvvvvv--
transcribed by ?
for: Pink Floyd publishing

Important: The song above is NOT stored on the Chordie server. The original song is hosted at tabfu.thudspace.net. Chordie works as a search engine and provides on-the-fly formatting. Chordie does not index songs against artists'/composers' will. To remove this song please click here.

Text color:
Chord color:
Chord grids: 
Font size:    
Page size: 

A Amaj7 Asus4 B Bm Bm7 C C#m C#m7 D Dmaj7 E F F#m F#m
Rate #3 of 8 versions

Jango Player

Login - add to songbook

SHARE PAGE  




You need to log in to post comments