Guitar Tabs, Chords and Lyrics
Major upgrade!! After one year development the new version of Chordie is now online! Please give feedback.


Welcome to the Machine  Pink Floyd

Date: Mon, 25 Sep 1995 16:45:19 -0500
From: Jonathan
Pink Floyd
 
 ----------

Welcome To The Machine
by Roger Waters
from the 1975 release, Wish You Were Here
tabbed by Jonathan
Chords used:
[Em(add9)] [Cmaj7] [Em] [A]  
 
 E ---0------------0------------0------------0---
 B ---0------------0------------0------------2---
 G ---0------------0------------0------------2---
 D ---4------------2------------2------------2---
 A ---2------------3------------2------------0---
 E ---0-------------------------0---------------- 

12 str gtr
(Synthesizers) Em(add9) / \ Cmaj7
\ /
\ / [Em(add9)] \ / [Em]
Welcome my son...(etc.)
12 str gtr
(Synthesizers play C, Em,) Cmaj7 Em(add9)
(C, Am, Em, C, Em, C, Em )
So welcome to the machine
[Cmaj7] 
[Em(add9)]  
Rhy. Fig. 1
 
 ------0-0-0-0-----0-0-0-0- -----0-0-0-0---0-0-0-0-
 .-----0-0-0-0-----0-0-0-0- -----0-0-0-0---0-0-0-0-
 ------0-0-0-0-----0-0-0-0- --^--0-0-0-0---0-0-0-0-
 .-2-----------2----------- -2/4---------4---------
 -------------------------- -----------------------
 -------------------------- -----------------------
 -----0-0-0-0---0-0-0-0-- -----0-0-0-0-----0-0-----
 -----0-0-0-0---0-0-0-0-- -----0-0-0-0-----0-0-----
 --^--0-0-0-0---0-0-0-0-- --^--0-0-0-0-----0-0-0---
 -4/5---------5---------- -5/7---------7-----------
 ------------------------ -------------------------
 ------------------------ ------------------------- 

end Rhy. Fig. 1
Cmaj7 Em(add9) . Cmaj7 Em(add9) Cmaj7 Em(add9)
.
w/Rhy. Fig. 1 Em Cmaj7 Em
Welcome my son...(etc.)
[Cmaj7] [A] [Em(add9)] 
[Cmaj7] [Em(add9)] 
[Cmaj7] [Em(add9)] [Cmaj7] 
So welcome
Em(add9) Fade out
to the machine

Important: The song above is NOT stored on the Chordie server. The original song is hosted at tabfu.thudspace.net. Chordie works as a search engine and provides on-the-fly formatting. Chordie does not index songs against artists'/composers' will. To remove this song please click here.

Text color:
Chord color:
Chord grids: 
Font size:    
Page size: 

A Cmaj7 Em Em(add9)
Rate #1 of 8 versions

Login - add to songbook

SHARE PAGE  



You need to log in to post comments