Guitar Tabs, Chords and Lyrics
Major upgrade!! After one year development the new version of Chordie is now online! Please give feedback.


Naked and Famous   The Presidents of the United States of America

 
 -----0-------0-------0---4-2--0- -----0-------0-------0---4-2--0--
 ---0---0---0-------0---0-------- ---0---0---0-------0---0---------
 -0-------0-----4-5-------------- -0-------0-----4-5---------------
 -------------------------------- ---------------------------------
 -12----------0-4-5-------9-11-12 -------------0-4-5-------9-11-12- 

 


 


 Bridge:


 

 
 -0--0--0--0--0---0--0--0--0--0---0--0--0--0--0---0--
 -0--0--0--0--0---0--0--0--0--0---0--0--0--0--0---0--
 -0--0--0--0--0---0--0--0--0--0---0--0--0--0--0---0--
 ----------------------------------------------------
 -12-12-12-12-12--12-12-12-12-12--12-12-12-12-12--12- 

 


 


 Chorus:


 

 
 -0-0--0-4-5--5-5-0-0--0-4-5--5-5-0-- This bit has 2 rhythms. One as shown
 -0-0--0-4-5--5-5-0-0--0-4-5--5-5-0-- with the slow chorus, one with the same
 -0-0--0-4-5--5-5-0-0--0-4-5--5-5-0-- chords but faster with the guitar solos.
 ------------------------------------
 -12---0-4-5----5---12-0-4-5--5---12- 

 


 


 Bit that leads into parts with guitar solos:


 

 
 -----0-------0-------0---4-2--0- -----0-------0-------0---4--------2--0-
 ---0---0---0-------0---0-------- ---0---0---0-------0---0---------------
 -0-------0-----4-5-------------- -0-------0-----4-5---------------------
 -------------------------------- ---------------15-14-----14h15h14-12-14
 -12----------0-4-5-------9-11-12 --------------------------------------- 

 


 


 Coda:


 

 
 12-12-x-x-x-x-10-10-x-x-5-5-x-x-x-x-3-3-x-x-0-0-x-x-x-x-3-3-x-x-5-5-x-x-x-x

 


 -10-10


 

 
 12-12-x-x-x-x-10-10-x-x-5-5-x-x-x-x-3-3-x-x-0-0-x-x-x-x-3-3-x-x-5-5-x-x-x-x

 


 -10-10


 

 
 12-12-x-x-x-x-10-10-x-x-5-5-x-x-x-x-3-3-x-x-0-0-x-x-x-x-3-3-x-x-5-5-x-x-x-x

 


 -10-10


 


 

 
 ---------------------------------------------------------------------------
 ------
 0--0--x-x-x-x-10-10-x-x-5-5-x-x-x-x-3-3-x-x-0-0-x-x-x-x-3-3-x-x-5-5-x-x-x-x

 


 -10-10


 


 You are on your own with the guitar noodles, just improvise or leave them out.


 


 Mail me at:- m.worsley@bbcnc.org.uk (David Worsley)


 


 Eat British Beef.


 


 From MHAB22A@prodigy.com Thu Apr 25 03:30:54 1996


 Received: from post-office.nevada.edu (post-office.nevada.edu (131.216.1.11)) by mailhost.tcs.tulane.edu (8.6.12/8.5) with ESMTP id WAA35856; Wed, 24 Apr 1996 22:30:52 -0500


 Received: from pimaia2w.prodigy.com (pimaia2w.prodigy.com (192.207.105.46)) by post-office.nevada.edu (8.6.12/8.6.4) with ESMTP id UAA20021 for ; Wed, 24 Apr 1996 20:28:46 -0700


 Received: from mime3.prodigy.com ((192.168.253.27)) by pimaia2w.prodigy.com (8.6.10/8.6.9) with ESMTP id XAA65852 for ; Wed, 24 Apr 1996 23:26:30 -0400


 Received: (from root@localhost) by mime3.prodigy.com (8.6.10/8.6.9) id XAA16660 for guitar@nevada.edu; Wed, 24 Apr 1996 23:23:55 -0400


 Message-Id:


 X-Mailer: Prodigy Internet GW(v0.9beta) - ae01dm04sc03


 From: MHAB22A@prodigy.com (MR MICKEY F LASS)


 Date: Wed, 24 Apr 1996 23:23:55, -0500


 To: guitar@nevada.edu


 Subject: here is some tab


 X-email-warning: As a cautionary note, there have been recent instances of


 people forging mail addresses. If you have any reason to believe


 this message is not authentic, please contact the listed sender or


 System Computing Services at (702) 895-4585.


 Status: RO


 


 Song: Naked and Famous


 Band: The Presidents of the USA


 Album: The Presidents of the USA


 


 Tuning: 6 to Db, 5 to Ab, and 4 to Db


 


 Intro:


 

 
 4---------0------------0--------------0-----------------------
 5------0-----0-----0--------------0-----0-------4----2----0
 6---0------------0--------4---5-------------------------------

 


 


 The Rythm at the end:


 

 
 4--0--0-----------4--5----------4------------------------12---10---5--

 


 [-3]  

 
 5--0--0-----------4--5----------4------------------------12---10---5--

 


 [-3]  

 
 6--0--0-----------4--5----------4------------------------12---10---5--


Important: The song above is NOT stored on the Chordie server. The original song is hosted at tabfu.thudspace.net. Chordie works as a search engine and provides on-the-fly formatting. Chordie does not index songs against artists'/composers' will. To remove this song please click here.

This song is displayed as text-only. Transposing and tuning is only available for chordpro-songs.
Rate #2 of 4 versions

Login - add to songbook

SHARE PAGE  



You need to log in to post comments