Guitar Tabs, Chords and Lyrics
Major upgrade!! After one year development the new version of Chordie is now online! Please give feedback.


Falling in and Out of Love  Pure Prairie League

Fallin In and Out of Love
by: Pure Prairee League
Most of the 1st part of 'Fallin..' is just finger-picking these
two chords: It's the same fingering, just moving up 2 frets.
F* G*
 
 -------------------
 -----6------8------
 -----5------7------
 -----7------9------
 -------------------
 -------------------

It's the finger-picking that's tricky, but not too hard once you
do it several times. Here's the tab:
TAB:
F* G*
 
 E ------------------0-----------0-- ------------------0-----------0--
 B :---------6-----------6---------- ----------8-----------8---------:
 G --------------5-----------5------ --------------7-----------7------
 D ------7-------------------------- ------9--------------------------
 A :-0------------------------------ --0-----------------------------:
 E --------------------------------- --------------------------------- 

0 1- 2 1+ 3 2 1+ 3 0 1- 2 1+ 3 2 1+ 3
(Fingering)
Probably the easiest way to master this is to first, get the
chords down with the left hand.
Then, don't even look at the tab. Just look at the fingering
line under the TAB, with your right-hand fingers on the following
strings:
0 = Thumb, A-string
1- = 1st-finger, D-string
1+ = 1st-finger, G-string
2 = 2nd-finger, B-string
3 = 3rd-finger, E-string
These 2 chords repeat twice, then repeat 4 more times with the words,
then it ends on this chord, strumming slowly with the right-thumb:
A*
 
 -------------------0---
 ---------------5-------
 -----------6-----------
 -------7---------------
 ---0-------------------
 -----------------------

WORDS: (not completely accurate.)
F* G*
More than what I feel...
F* G*
Touchin' what is real...
F* G*
All our thoughts are reelin' round...
F* G*
Carolina's feelin' down...
A*
To-day.
- (From here, it goes to the 'Amy' intro and song.) -
The last chorus of 'Amy' leads into the 2nd part of 'Fallin..'
as follows:
[A]Amy, [G]What you wanna [D]do?
[A]I think [G]I could stay with [D]you, for a
[Bm]while, maybe longer if I [E]do... I keep
(shift into melodious finger-picking, with
occasional suspended-2nd's on the A & D chords...)
[A] Fallin in and out of [G]love with [D]you
[A] Fallin in and out of [G]love with [D]you
[A] Don't know what I'm gonna [G]do [D] I keep
A D F* G* A***
Fallin in and out of love with you . . .
(One last easy chord:)
A***
 
 -------------------------------0--
 ---------------0-------0------0---
 -----------6-------6---------6----
 -------7--------------------7-----
 ---0-----------------------0------
 ----------------------------------

0 1 2 3 2 3 0----
(Fingering)

Important: The song above is NOT stored on the Chordie server. The original song is hosted at tabfu.thudspace.net. Chordie works as a search engine and provides on-the-fly formatting. Chordie does not index songs against artists'/composers' will. To remove this song please click here.

Text color:
Chord color:
Chord grids: 
Font size:    
Page size: 

A Bm D E G
Rate #1 of 7 versions

Login - add to songbook

SHARE PAGE  




You need to log in to post comments