Guitar Tabs, Chords and Lyrics
Major upgrade!! After one year development the new version of Chordie is now online! Please give feedback.


Wind Below   Rage Against the Machine

 
 ------

 


 [4/4] [5/4]  


 

 
 ------------------------------- ---------------------------------------
 ------------------------------- ---------------------------------------
 ------------------------------- ---------------------------------------
 ------------------------------- ---2-----------------------------------
 -2-0-2-3-2-0-------------0----- -4-----2-1-2-4-2-1-----x-x-x---x---x-x-
 ---------------2---1-0-----2--- -------------------0---x-x-x---x---x-x- 

 


 4th time let ring


 Riff B


 

 
 ------

 


 tr tr tr


 

 
 -10(11)-------------------------
 ---------11(12)--12(13)---------
 --------------------------------
 --------------------------------
 --------------------------------
 -------------------------------- 

 


 .


 Solo


 [----] x3


 

 
 ----------------------------------------19-17-15-
 ----15-17----15-17----15-17----15-17-------------
 -16-------16-------16-------16-------16----------
 -------------------------------------------------
 -------------------------------------------------
 ------------------------------------------------- 

 


 .


 

 
 -----------------------------------------------
 ----15-17----16-18----17-19----18-20---21------
 -16-------17-------18-------19--------------21-
 -------------------------------------0----0----
 -----------------------------------------------
 ----------------------------------------------- 

 


 .


 let ring ad lib


 .


 

 
 -------24----24---23----23----23--22----22----22--21----21-----
 -23------23---------22----22----22--21----21----21--20----20\--
 -----24----24---------23----23--------22----22--------21-------
 ---------------------------------------------------------------
 ---------------------------------------------------------------
 --------------------------------------------------------------- 

 


 .


 

 
 -24----24----24--23----23----23--22----22----22--21----21-----
 ---23----23----23--22----22----22--21----21----21--20----20---
 -----24----24--------23----23--------22----22--------21-------
 --------------------------------------------------------------
 --------------------------------------------------------------
 -------------------------------------------------------------- 

 


 .


 Riff C


 

 
 ------

 


 .


 

 
 ------------------------ --------------------------
 ------------------------ --------------------------
 -----0------------------ -----0--------------------
 -----0------------------ -----0--------------------
 -----0------------------ -----0--------------------
 -0--------------------\- -0------------------18b--- 


Important: The song above is NOT stored on the Chordie server. The original song is hosted at tabfu.thudspace.net. Chordie works as a search engine and provides on-the-fly formatting. Chordie does not index songs against artists'/composers' will. To remove this song please click here.

This song is displayed as text-only. Transposing and tuning is only available for chordpro-songs.
Rate #1 of 3 versions

Jango Player

Login - add to songbook

SHARE PAGE  




You need to log in to post comments