Guitar Tabs, Chords and Lyrics
Server problems seems to be fixed. Chordie has been experiencing problems with songs disappearing. These issues now seems to be fixed, but still verifying the fix. If you find anything strange, please email admin@chordie.com.


Down Together  The Refreshments

"Down Together" - The Refreshments
(from the album "Fizzy, Fuzzy, Big and Buzzy", 1996)
Tabbed by Des McKinney
 
 ---------------------------------------------------

All the lead guitar parts are listed first (there're
a bunch of them for this song). If you're playing
it by yerself, just ignore all the riffs here, and
go with the chords listed below with the lyrics
(Chord chart at end). For the most part, it's just
bar-chords.
INTRO: (The rythym guitar is just playing the chords
with some right-hand muting)
[E] [F#] [A] [B]  
 
 e:----- ----- ----- ---------------------------
 B:----- ----- ----- ----------------5--7b(9)(7)
 G:----- ----- ----- ----------4--6-------------
 D:----- ----- ----- -------6-------------------
 A:----- ----- ----- ----7----------------------
 E:----- ----- ----- --------------------------- 

[E] [F#] [A] [B]  
 
 e:----- ---------0------0--- ----------- ------
 B:5---- -----9---9b(10)-7h9- 7---------- ------
 G:----- -------------------- ---9--6--9- ------
 D:----- -------------------- ----------- ------
 A:----- -------------------- ----------- ------
 E:----- -------------------- ----------- ------ 

RIFF1: (This and RIFF2 are played together at the
start, but separately later in the song)
[E] [F#] [A]  
 
 e:--------- ------------------- --------------------
 B:9--9--9-- 9/11--11-11----11-- 11/14--14-14----14--
 G:9--9--9-- 9/11--11-11----11-- 11/14--14-14----14--
 D:9--9--9-- 9/11--11-11----11-- 11/14--14-14----14--
 A:7--7--7-- 7/9---9--9-----9--- 9-/12--12-12----12--
 E:--------- ------------------- -------------------- 

[B]  
 
 e:------------------
 B:16-17-16-17-16----
 G:16-16-16-16-16-16-
 D:16-16-16-16-16-16-
 A:14-14-14-14-14-14-
 E:------------------ 

RIFF2:
[E] [F#] [A]  
 
 e:--------- ------------------- --------------------
 B:9--9--9-- 9/11--11-11----11-- 11/14--14-14----14--
 G:9--9--9-- 9/11--11-11----11-- 11/14--14-14----14--
 D:9--9--9-- 9/11--11-11----11-- 11/14--14-14----14--
 A:7--7--7-- 7/9---9--9-----9--- 9-/12--12-12----12--
 E:--------- ------------------- -------------------- 

[B]  
 
 e:12----------------
 B:---12-------------
 G:------------------
 D:------14-13-11-9--
 A:------------------
 E:------------------ 

RIFF3: (This is just a little thing he does in the
2nd verse)
[B]  
 
 e:-------------------
 B:-------------------
 G:-------------------
 D:8/9--9--8/9--9--8/9
 A:8/9--9--8/9--9--8/9
 E:6/7--7--6/7--7--6/7 

RIFF4: (Another little bit of filler before the
chorus)
[A] [B]  
 
 e:------------------------ --------------------
 B:------------------------ --------------------
 G:---------------------2-- --------------------
 D:-------------2--2h4----- --------------4--6\-
 A:--------2h4------------- ---------4h6h-------
 E:------------------------ -------------------- 

RIFF5: (Not perfect, but as close as you'll get with
a guitar)
[B]  
 
 e:----------------------
 B:----------------------
 G:----------------------
 D:----------------------
 A:----5-----4------3----
 E:-7-----6------5-----4- 

SOLO:
[E]  
 
 e:---12----------------------------
 B:12-------------------------------
 G:------14b(15)-12h14p12----12-----
 D:-----------------------14----14--
 A:---------------------------------
 E:--------------------------------- 

[F#]  
 
 e:-------------------------------
 B:-------------------------------
 G:-------------------------------
 D:12h14p12----12-----------12----
 A:---------14----14--12h14----14-
 E:------------------------------- 

[A] [B]  
 
 e:------------------------------ ------12----------
 B:------------------------12---- 12-15----15b17-12-
 G:---------12----12-12h14----15- ------------------
 D:12-12h14----14---------------- ------------------
 A:------------------------------ ------------------
 E:------------------------------ ------------------ 

[E] [F#]  
 
 e:---12----12---------- ---12----12-------------
 B:14----14----14-12---- ------------------------
 G:------------------13- 14----14----14p13-11-19-
 D:--------------------- ------------------------
 A:--------------------- ------------------------
 E:--------------------- ------------------------ 

[A] [B]  
 
 e:------------------ -----------------------------
 B:------------------ -----------------------------
 G:----------9------- -----------------------------
 D:-----9h11---11---- 13h14p13-11-11b(12)-9-----9--
 A:9h11-------------- -----------------------11----
 E:------------------ ----------------------------- 

ENDING: (Not really important, but sounds good
if you have 2 guitars)
 
 e:12----------
 B:---12-------
 G:------11b13-
 D:------------
 A:------------
 E:------------ 

THE SONG:
[INTRO] 
[RIFF1] 
[RIFF2] 
[E] We could write our [F#m]names here in the [A]mud
No one's a[B]round to see them
[E] We could hang our [F#m]shoes here in a [A]tree
No one's a[B]round to steal them
[E]I could give you a [F#m]star, you could give me one [A]too
That way [B]we'd be even
[E] And I could sing this [F#m]song way out of [A]tune
And not care a [B]bit about it
[RIFF2] 
[E] We could both wear [F#m]cowboy hats, and pre[A]tend
that we could [B]speak Italian
[E] I could eat some [F#m]gum, and make my [A]breath
B(W/ RIFF3)
so minty fresh to kiss you
[E] Your breath will smell like [F#m]wine, I like that a [A]lot
Especially [B]when I kiss you
[E] And I could hit my [F#m]funny bone real ha[A]rd
And you could [B]call me sweatheart
[F#m]And who ever [A]said there's nothing [E]new under the [B]sun
A(w/ RIFF4) B
Never thought much about individuals
But he's dead anyways
[E]Lets go [F#m]down to[A]gether, down tog[B]ether, let's go
[E]down t[F#m]ogether, down t[A]ogether, down to[B]gether let's go
[E]down t[F#m]ogether, down t[A]ogether, down to[B]gether let's go
[E]down t[F#m]ogether, down t[A]ogether, down to[B]gether
Yeah let's go
[RIFF1] 
[RIFF2] 
[E] We could all wear [F#m]ripped up clothes and pret[A]end
that we're [B]Dead Hot Workshop
[E]I could drive a [F#m]long long way and not [A]even have
B(w/ RIFF5)
the gas to make it back
[E]We could chase our [F#m]shadows around the [A]lawn
Until we're [B]both exhausted
[E] 'N I could forget the [F#m]words here one more [A]time
and hope that no [B]one notices
[F#m] And who ever [A]said there's nothing [E]new under the [B]sun
A (w/ RIFF4) B
Never thought much about me
Yeah, well what's [E]good for you is [C#m]good for me
And what's [A]bad for you is [B]bad for me
And what's [E]good for you is [C#m]good for me
And what's [A]bad for you is [B]bad for me
[A]Cars break down and people break down and other things break down too,
so let's go
[E]down [F#m]together, down to[A]gether, down tog[B]ether, let's go
[E]down t[F#m]ogether, down t[A]ogether, down to[B]gether let's go
[E]down t[F#m]ogether, down t[A]ogether, down to[B]gether let's go
[E]down t[F#m]ogether, down t[A]ogether, down to[B]gether
Yeah let's go
[RIFF1] 
[RIFF2] 
[SOLO] 
[E] We could find a [F#m]speck of dust and [A]scribble down
B [ENDING]
our life story
CHORD CHART:
[E] [A] [B] [F#] [F#m] [C#m]  
 
 e:-0---5---7---2---2----4-
 B:-0---5---7---2---2----5-
 G:-1---6---8---3---2----6-
 D:-2---7---9---4---4----6-
 A:-2---7---9---4---4----4-
 E:-0---5---7---2---2---(4) 

Date: Tue, 10 Dec 1996 22:32:42 -0500 (EST)
From: MONACO7320@duq3.cc.duq.edu
Subject: TAB: "Down Together" by The Refreshments
Since there are currently no tabs for The Refreshments, I figured I would
place the first one in the archive. Although I am not a huge fan of The
Refreshments, one of my best friends is. And, as a result, I figured this
little bit out. I apologize that this is all I have but I do not even
own the CD. Maybe if someone else is interested, they could figure out
the leads or the changes. Regardless, here is the main riff.
 
 ------------------------------------------------
 ------------------------------------------------
 -2-2-2-------4-4-4-------7-7-7-------9-9-9------
 -2-2-2-------4-4-4-------7-7-7-------9-9-9------
 -o-o-o--o-o--2-2-2--2-2--5-5-5--5-5--7-7-7--7-7-
 ------------------------------------------------

*(A)*********(B5)*********(D5)*********(E5)*****
*********************NOTE***********************
As I am sure you already know, these chords are palm muted.
However, this might/probably change(s) somewhere in the song but
I rest assured that you will know where and when.

Important: The song above is NOT stored on the Chordie server. The original song is hosted at tabfu.thudspace.net. Chordie works as a search engine and provides on-the-fly formatting. Chordie does not index songs against artists'/composers' will. To remove this song please click here.

Text color:
Chord color:
Chord grids: 
Font size:    
Page size: 

A B C#m E F# F#m
Rate #1 of 1 versions

Jango Player

Login - add to songbook

SHARE PAGE  




You need to log in to post comments