Guitar Tabs, Chords and Lyrics
Server problems seems to be fixed. Chordie has been experiencing problems with songs disappearing. These issues now seems to be fixed, but still verifying the fix. If you find anything strange, please email admin@chordie.com.


Angie  The Rolling Stones

subject: Rolling Stones - Angie
ANGIE by Rolling stones. Any correction is appriciated.
intro:
Harmonics Am E
 
 -------- --0---0---3^0---------- --------0-----------------------
 -------- --1---1---1------------ ------0---0--------0------------
 -------- --2---2---2------------ ----1-------1---1--1------------
 -------- --2---2---2------------ --------------2-2---------------
 --12---- ----------------------- --------------------------------
 -------- ----------------------- -0------------------------------ 

[G] [F] [F] [C] 
 
 ---------3---------1-1---------- -1---------1--------------------
 -------3---3-------1-1---------- ---1----------------------------
 -----5-------5-----3-2---------- --------2----------0-0----------
 -5-------------5---3-3---------- ------3------------3-2----------
 -------------------------------- -----------------3--------------
 -------------------------------- -------------------------------- 

[Em7] [Am]  
 
 -------------------------------- --------------------------------
 -------0-------0^1-------------- --------------------------------
 ---------0-----2---------------- --------------------------------
 ----0----------2---------------- --------------------------------
 --2------------0---------------- --------------------------------
 -------------------------------- -------------------------------- 

ANGIE Stones
[lyrics from ftp.uwp.edu] 
[Am] [E7]  
Angie, Angie
G? F? F F C G C
When will those clouds all disappear?
[Am] [E7]  
Angie, Angie
G? F? F F C G C
Where were the ladies from here?
[G]  
With no loving in our souls
[Dm] [Am]  
and no money in our coats
[C] [F] [G]  
(( Oh you can't say we're satisfied ))
[Am] [E7]  
Angie, Angie
G? F? F F C G C
(( Oh you can't say we never tried ))
Uh Angie, you're beautiful...yes
(( but ain't it time we said goodbye ))
Angie, I still love you
Remember all those nights we cried
(( All the dreams we held so close
Seem to all go up in smoke
Oh let me whisper in your ear ))
Where were the ladies from here?
Oh Angie don't you weep
All your kisses still taste sweet
I hate that sadness in your eyes
but Angie, Angie
Ain't it time we said goodbye...ya
(( With no loving in our souls
and no money in our coats
Oh you can't say we're satisfied ))
[Dm] [Am]  
but Angie, I still love you baby
[Dm] [Am]  
Every where I look I see your eyes
[Dm] [Am]  
There ain't a woman that comes close to you
[C] [F] [G]  
Come on baby dry your eyes
Angie, Angie
Ain't it good to be alive
Angie, Angie
They can't say we never tried
Am G G? F F? C Dm
 
 ------3-----1--1------1---------
 --1------3--1--1--1---3---------
 --2---------2--3------2---------
 --2---------3--3--2-------------
 ------2--2--------3-------------
 ------3--3--------3-------------
 -----------------------------------------------------------------------------

From: matthew.gates@escape.brisnet.org.au (Matthew Gates)
[Am] [E7] 
Angie,Angie
[G] [F] [A#] [F] [GCG] 
When will those dark clouds all disappear?
[Am] [E] 
Angie, Angie
[G] [F] [A#FGC ] 
Where will it lead us from here? With no
[G] 
loving in our souls and no
[Dm] [Am] 
money in our coats
[C] [F] [G] 
You can't say we're satisfied
[Am] [E] 
Angie, Angie
[G] [F] [A#FGCE7] 
You can't say we never tried
D.S.al Coda
CODA:
[Dm] [Am] 
Angie, I still love you baby
[Dm] [Am] 
Ev'ry where I look I see your eyes
[Dm] [Am] 
There ain't a woman that comes close to you
[C] [F] [G] 
Come on baby dry your eyes But
[Am] [E7] 
Angie______ An-gie
[G] [F] 
Ain't it good to be alive
1.
[A#] [F] [G] [C] [E7] 
2.
[A# F G C (beld)] 
Angie you're beautiful but ain't it time we said goodbye
Angie I still love you remember all those nights we cried
All the dreams we held so close seemed to all go up in smoke
Let me whisper in your ear Angie, Angie where will it lead us from here
Angie, where will it lead us from here.
_Instrumental_
Oh Angie don't you weep all your kisses still taste sweet
I hate that sadness in your eyes but
Angie, Angie ain't it time we said goodbye
_Instrumental_
With no loving in our souls and no money in our coats
You can't say we're satisfied
But Angie, Angie, I still love you baby.
 
 ---------------------------Cut Here------------------------------------------

Anybody written a program that makes entering TAB easy? POST IT!!
matthew.gates@escape.brisnet.org.au
From: graeberd@student.msu.edu (Mr. G.)
Subject: Angie: The Rolling Stones
Nobody requested this, but I kind of wanted to show off Ofir Zwebner's TAB
master program and I really like the song too....
Angie:
[Am] [Emaj7] [G]  
 
 e:-----0--0--0--0--3^0--------0-----------0-----------0----------------3-----
 B:-----1--1--1--1--1-------1-----------0-----0-----0-----1----------3-----3--
 G:-----2--2--2--2--2----2-----------1-----------1--1-------------4-----------
 D:-----2--2--2--2--2-------------------------------2----------5--------------
 A:!12!------------------------------------------------------5----------------
 E:-------------------------------0------------------------------------------- 

[F] [Em7] [Am]  
 
 e:---------1--1--1-----------1--------0-----0----------------------0--0--0--0
 B:---------1--1-----1--------------------------1--------0-----0^1--1--1------
 G:4--------3--2-----------2--------0-----------------------0--2----2--2------
 D:---5-----3--3--------3--------2--------------------0--------2----2--2------
 A:------5--------------------------------3--------2-----------0--------------
 E:--------------------------------------------------------------------------- 

"Angie..."
 
 e:--0--0--0--0--0--------------------------------------------
 B:-----------------3--1--------------------------------------
 G:-----------------------------------------------------------
 D:-----------------------------------------------------------
 A:-----------------------------------------------------------
 E:----------------------------------------------------------- 

(repeats and alters during the song)
The Words:
[Am]Angie...Ang[E7]ie
[G]When wil[F]l those [E7]clouds all disap[Am]pear
[Am]Angie...[E7]Angie
[G]Where wil[F]l it le[E7]ad us fro[Am]m here
[G]With no loving in our souls
[Dm]and no money in our coat[Am]s
[C]You can[F]'t say we'r[G]e satisfied
[Am]Angie...[E7]Angie
[G]You can'[F]t say we [Em7]never t[Am]ried
[Am]Angie...you're b[E7]eautiful..yeah
[G]but aint it tim[F]e we sai[Em7]d goodby[Am]e
[Am]Angie, I still l[E7]ove you
[G]Remember all[F] those nig[Em7]hts we cried[Am]
[G]All the dreams we held so close
S[Dm]eemed to all go up in s[Am]moke
[C]Let me w[F]hisper in your e[G]ar
[G]Where wi[F]ll it le[Em7]ad us to[Am] here
Oh Angie[G] don't you weep
[Dm]All your kisses still ta[Am]ste sweet
[C]I hate t[F]hat sadness in y[G]our eyes
[Am]but Angie....Ang[E7]ie
[G]Aint it [F]time we said goo[Em7]dye...ang[Am]ie
With no loving i[G]n our souls
[Dm]And no money in our coat[Am]s
[C]You can'[F]t say we're sati[G]sifed
[Dm]But Angie, I still love [Am]you baby
[Dm]Everywhere I look, I see[Am] your eyes
[Dm]There aint a woman that comes cl[Am]ose to you
Co[C]me on [F]baby dry your ey[G]es
[Am]Angie...[E7]Angie
[G]Aint it go[F]od to[Em7] be ali[Am]ve
[Am]Angie...[E7]Angie
[G]They can[F]'t say[Em7] we ne[Am]ver tried

Important: The song above is NOT stored on the Chordie server. The original song is hosted at tabfu.thudspace.net. Chordie works as a search engine and provides on-the-fly formatting. Chordie does not index songs against artists'/composers' will. To remove this song please click here.

Text color:
Chord color:
Chord grids: 
Font size:    
Page size: 

A# Am C Dm E E7 Em7 Emaj7 F G
Rate #1 of 37 versions

Jango Player

Login - add to songbook

SHARE PAGE  



You need to log in to post comments